Cifra Club

Aprenda

I Got Mine

The Black Keys

Cifra: Principal (violão e guitarra)
Tom: G
Intro:
E|-------------------------------------|
B|-------------------------------------|
G|-------------------------------------|
D|-------------------------------------|
A|--9---9-8-7---7-6-5---4--3-----------|
E|--7---7-6-5---5-4-3---2--1-----------|

Riff Principal:
E|-------------------------------------|
B|-------------------------------------|
G|-------------------------------------|
D|------------------5-7-5--------------|
A|----7-5-7---7-5-7-------7------------|
E|--0-------0--------------------------|

E|-------------------------------------|
B|-------------------------------------|
G|-------------------------------------|
D|-------------------------------------|
A|----7-5-7---7-5-7-5------------------|
E|--0-------0---------3-5-3------------|

E|-------------------------------------|
B|-------------------------------------|
G|-------------12~---------------------| (3x)
D|-------------------------------------|
A|-------5-7---------------------------|
E|--0-0--3-5---------------------------|

E|-------------------------------------|
B|-------------------------------------|
G|-------------------------------------|
D|-------------------------------------|
A|-------------------------------------|
E|--0-0--17--15--12--------------------|
Composição de The Black Keys
Colaboração e revisão:
  • joao silva
15.830 exibições
    • ½ Tom
    • A
    • Bb
    • B
    • C
    • Db
    • D
    • Eb
    • E
    • F
    • F#
    • G
    • Ab
  • Adicionar à lista

    0 comentários

    Mostrar mais comentários

    Conseguiu tocar?

    6 Tocaram 1 Ainda não

    Grave um vídeo tocando I Got Mine e mande pra gente!

    00:00 / 00:00
    outros vídeos desta música
    repetir qualidade Automático
    Outros vídeos desta música
    00:00 / 00:00
    Automático

    Cifra Club Pro

    Aproveite o Cifra Club com benefícios exclusivos e sem anúncios
    7 dias grátis
    Cifra Club Pro
    Aproveite o Cifra Club com benefícios exclusivos e sem anúncios
    7 dias grátis
    OK