Cifra Club

Aprenda

Sister

The Black Keys

Cifra: Principal (violão e guitarra)
Tom: C
Intro:
       Em           Dm
E|-7--7--7-------5--5--5---|
B|-8--10-8-------6--8--6---|
G|-9--7--9-------7--5--7---|   x2
D|-9--9--9-------7--7--7---|
A|-7--7--7-------5--5--5---|
E|-------------------------|

       Am
E|-5--5--5---|
B|-5--5--5---|
G|-5--7--5---|   x4
D|-7--5--7p5-|
A|-7--7--7p5-|
E|-5--5--5---|

Verse:
       Am                          Dm
E|-5--5--5-------5--5--5-------5--5--5-------5--5--5---|
B|-5--5--5-------5--5--5-------6--8--6-------6--8--6---|
G|-5--7--5-------5--7--5-------7--5--7p5-----7--5--7p5-|   x2
D|-7--5--7p5-----7--5--7p5-----7--7--7p5-----7--7--7p5-|
A|-7--7--7p5-----7--7--7p5-----5--5--5-------5--5--5---|
E|-5--5--5-------5--5--5-------------------------------|

Refrão:
       Em             Dm
E|-7--7--7--7-----5--5--5--5-|
B|-8--8--8--8-----6--6--6--6-|
G|-9--9--9--9-----7--7--7--7-|   x2
D|-9--9--9--9-----7--7--7--7-|
A|-7--7--7--7-----5--5--5--5-|
E|---------------------------|

Depois do primeiro Refrão:
       Am
E|-5--5--5---|
B|-5--5--5---|
G|-5--7--5---|   x2
D|-7--5--7p5-|
A|-7--7--7p5-|
E|-5--5--5---|

Verse

Depois do segundo Refrão:
Sister, Sister, What did they do   to you?
    Am                  Dm                  F
E|-5---------5---------5------5----5-------------------------------------|
B|-5---------5---------6------6----6------10--10--10--10--10--10--10--10-|
G|-5---------5---------7------7----7------10--10--10--10--10--10--10--10-|x2
D|-7---------7---------7------7----7------10--10--10--10--10--10--10--10-|
A|-7---------7---------5------5----5------8---8---8---8---8---8---8---8--|
E|-5---------5-----------------------------------------------------------|

       Em           Dm
E|-7--7--7-------5--5--5---|
B|-8--10-8-------6--8--6---|
G|-9--7--9-------7--5--7---|   x2
D|-9--9--9-------7--7--7---|
A|-7--7--7-------5--5--5---|
E|-------------------------|

       Am
E|-5--5--5---|
B|-5--5--5---|
G|-5--7--5---|   x2
D|-7--5--7p5-|
A|-7--7--7p5-|
E|-5--5--5---|

       Am                          Dm
E|-5--5--5-------5--5--5-------5--5--5-------5--5--5---|
B|-5--5--5-------5--5--5-------6--8--6-------6--8--6---|
G|-5--7--5-------5--7--5-------7--5--7p5-----7--5--7p5-|
D|-7--5--7p5-----7--5--7p5-----7--7--7p5-----7--7--7p5-|
A|-7--7--7p5-----7--7--7p5-----5--5--5-------5--5--5---|
E|-5--5--5-------5--5--5-------------------------------|

       Em             Dm
E|-7--7--7--7-----5--5--5--5-|
B|-8--8--8--8-----6--6--6--6-|
G|-9--9--9--9-----7--7--7--7-|   x2
D|-9--9--9--9-----7--7--7--7-|
A|-7--7--7--7-----5--5--5--5-|
E|---------------------------|

Solo:
            Am    Am             Dm       Dm        Em
E|-------------------------------------------------------------------|
B|----------------------------------8-8--------------------8---8-10--|
G|-----5-7-7s9-7-5s7-5------5-7-7s9------7-5-7p5h7-7s9-9-9---9-------|
D|-5h7------------------5h7------------------------------------------|
A|-------------------------------------------------------------------|
E|-------------------------------------------------------------------|

    Dm                Em                Dm
E|-------------------------------------10b12b10p8--------------|
B|-8s10-8--------------------8---8-10-------------10-8---------|
G|--------9-7s5-7p5--7s9-9-9---9-----------------------9p8p7-5-|
D|-------------------------------------------------------------|
A|-------------------------------------------------------------|
E|-------------------------------------------------------------|
Composição de Brian Burton / Dan Auerbach / Patrick Carney
Colaboração e revisão:
  • Matheus Prado
5.002 exibições
    • ½ Tom
    • A
    • Bb
    • B
    • C
    • Db
    • D
    • Eb
    • E
    • F
    • F#
    • G
    • Ab
  • Adicionar à lista

    0 comentários

    Mostrar mais comentários

    Conseguiu tocar?

    2 Tocaram 0 Ainda não

    Grave um vídeo tocando Sister e mande pra gente!

    00:00 / 00:00
    outros vídeos desta música
    repetir qualidade Automático
    Outros vídeos desta música
    00:00 / 00:00
    Automático

    Cifra Club Pro

    Aproveite o Cifra Club com benefícios exclusivos e sem anúncios
    7 dias grátis
    Cifra Club Pro
    Aproveite o Cifra Club com benefícios exclusivos e sem anúncios
    7 dias grátis
    OK