Cifra Club

Aprenda

Tighten Up

The Black Keys

Cifra: Principal (violão e guitarra)
Tom: F#m
Riff Principal:
E|-9--9----4-4---2-2--------|
B|-10-10---5-5---3-3---6-6--|
G|-11-11---6-6---4-4---x-x--|
D|-11-11---6-6---4-4---6-6--|
A|---------------------4-4--|
E|--------------------------|

Intro:
E|-----------------------------------------------------------------|
B|-----------------------------------------------------------------|
G|-----------------------------------------------------------------|
D|---(2h)4--4------------------------------------------------------|
A|------------7-4---------2-0---0-2--2--0h2-0---0-/4--4--2--0------|
E|-2--------------7s5---2-----2---------------2--------------------|

Solo 1:
E|-2-2---2---------------------------------------------------------|
B|-----5---5-2----2--5-2-------------------------------------------|
G|-------------4---------4-2-4-2-4--4-2-4-2------------------------|
D|------------------------------------------4-2-4--2---------------|
A|-----------------------------------------------------4p2h4-------|
E|------------------------------------------------------------5b---|

Solo 2:                     
E|-2-2---2----------|       e|-------------|
B|-----5---5-2------|       B|-2--5--------|
G|-------------4----| (3x)  G|------4p2h4--|
D|------------------|       D|-----------4-|
A|------------------|       A|-------------|
E|------------------|       E|-------------|

E|-2-2---2----------|
B|-----5---5-2------|
G|-------------4----| (2x)
D|------------------|
A|------------------|
E|------------------|

E|-2-2---2-5----------------|
B|-----5-----5--2-2---2-----|
G|------------------4--4----|
D|-----------------------4--|
A|--------------------------|
E|--------------------------|

Solo 3:
E|-2-2---2---------------------------------------------------------|
B|-----5---5-2----2--5-2-------------------------------------------|
G|-------------4---------4-2-4-2-4--4-2-4-2------------------------|
D|------------------------------------------4-2-4--2---------------|
A|-----------------------------------------------------4p2h4-------|
E|------------------------------------------------------------5b---|

Solo 4:                   
E|-2-2---2----------|       e|-------------|
B|-----5---5-2------|       B|-2--5--------|
G|-------------4----| (3x)  G|------4p2h4--|
D|------------------|       D|-----------4-|
A|------------------|       A|-------------|
E|------------------|       E|-------------|

E|-2-2---2----------|
B|-----5---5-2------|
G|-------------4----| x2
D|------------------|
A|------------------|
E|------------------|

E|-2-2---2-5----------------|
B|-----5-----5--2-2---2-----|
G|------------------4--4----|
D|-----------------------4--|
A|--------------------------|
E|--------------------------|

Segundo Riff:
E|-9--9--9--4-4-4-9--9--9--4-4-4-9--9--9--4-4-4--2-2--------|
B|-10-10-10-5-5-5-10-10-10-5-5-5-10-10-10-5-5-5--3-3--6-6-6-|
G|-11-11-11-6-6-6-11-11-11-6-6-6-11-11-11-6-6-6--4-4--x-x-x-|
D|-11-11-11-6-6-6-11-11-11-6-6-6-11-11-11-6-6-6--4-4--6-6-6-|
A|----------------------------------------------------4-4-4-|
E|----------------------------------------------------------|

Ultimo solo feito com um phaser:

E|-2-2---2----------|       e|----------------|
B|-----5---5-2------|       B|-2--2~2---------|
G|-------------4----| (3x)  G|--------2h4p2---|
D|------------------|       D|-------------4b-|
A|------------------|       A|----------------|
E|------------------|       E|----------------|

E|-2-2---2----------|
B|-----5---5-2------|
G|-------------4----| (2x)
D|------------------|
A|------------------|
E|------------------|

E|-2-2---2-5------------------------|
B|-----5------5--2(2)2---2--2-------|
G|--------------------4--4--4-2-----|
D|-----------------------------4fb--|
A|----------------------------------|
E|----------------------------------|
Composição de The Black Keys
Colaboração e revisão:
  • Paulo Lopes
60.447 exibições
    • ½ Tom
    • Am
    • Bbm
    • Bm
    • Cm
    • C#m
    • Dm
    • Ebm
    • Em
    • Fm
    • F#m
    • Gm
    • G#m
  • Adicionar à lista

    0 comentários

    Mostrar mais comentários

    Conseguiu tocar?

    6 Tocaram 0 Ainda não

    Grave um vídeo tocando Tighten Up e mande pra gente!

    00:00 / 00:00
    outros vídeos desta música
    repetir qualidade Automático
    Outros vídeos desta música
    00:00 / 00:00
    Automático

    Cifra Club Pro

    Aproveite o Cifra Club com benefícios exclusivos e sem anúncios
    7 dias grátis
    Cifra Club Pro
    Aproveite o Cifra Club com benefícios exclusivos e sem anúncios
    7 dias grátis
    OK