Cifra Club

Could It Be Any Harder

The Calling

Cifra: Principal (violão e guitarra)
Tom: G
Intro:(Riff 1)|F - G - C - Am - |-2x

F               G                C   Am
You left me with goodbye and open arms
F         G            C      Am  
A cut so deep I don't deserve
F               G                C   Am
You were always invincible in my eyes
F                G               C     Am   
The only thing against us now is time


Refrão:

         F        G       C               Am
Could it be any harder to say goodbye and without you,
         F        G       C             Am 
Could it be any harder to watch you go, to face what's true
F          G            Am (Riff 2)
If I only had one more day

 
F             G                  C       Am
I lie down and blind myself with laughter
F              G                C      Am
A quick fix of hope is what I'm needing
F                           G             C      Am
And how I wish that I could turn back the hours
F                 G              C        Am
But I know I just don't have the power

Refrão:

         F        G       C               Am
Could it be any harder to say goodbye and without you,
         F        G       C             Am 
Could it be any harder to watch you go, to face what's true
F          G            Am (Riff 2)
If I only had one more day



F               G
I'd jump at the chance,
                     C
We'd drink and we'd dance
               Am
And I'd listen close to your every word,
F               G                      C
As if it's your last, I know it's your last,
       Am                F    (Solo)
Cause today, oh, you're gone

Solo: |F - G - C - Am - |-2x

         F        G     C    Am
Could it be any harder. . .
         F        G     C    Am
Could it be any harder. . .

Refrão:

         F        G       C               Am
Could it be any harder to live my life without you,
         F        G       C             Am 
Could it be any harder I´m not alone I´m not alone


F               G
Like sand on my feet,
                    C
The smell of sweet perfume
                 Am
You stick to me forever baby
F                      G
And I wish you didn't go
                  C                     Am
I wish you didn't go, I wish you didn't go away
   F
To touch you again, 
G                 C
With life in your hands,
            Am       F       G       C      Am
It couldn't be any harder.. harder.. harder

------------------------


= T a B s =

 Riff 1

    Fsus2add7         G6                C           Am
e|-----------0--|-------------0--|---------0----|-----------------
b|--------1-----|----------3-----|------1-------|--------1--------
g|--------------|----------------|--------------|-----2-----------
d|----3---------|---3/5----------|--------------|--2--------------
a|--------------|----------------|---3----------|-----------------
E|--------------|----------------|--------------|-----------------

 Riff 2
    Am
------------0--------------------0---------------------------
-------------------------------------------------------------
--------2------------------2---------------------------------
-------------------------------------------------------------
----0----------------0---------------------------------------
-------------------------------------------------------------

 
Solo
  F           G      C  Am
e|------0h1-0----------0----------------------------
b|--1-3-------3-1--0-1---1-3-0---------------------- 
g|---------------------------2-0--------------------
d|--------------------------------------------------
a|--------------------------------------------------
E|--------------------------------------------------

  F              G      C         Am
e|--3-5-7h8-7-5-3-3-3---3-5-5-3-3----1h3-1-0--------
b|-------------------------------------------3-1----
g|--------------------------------------------------
d|--------------------------------------------------
a|--------------------------------------------------
E|-------------------------------------------------



Chords List >>> 
Obs:. Usar estes acordes ou os riffs como base para a música. 

  Fsus2add7 ou   F*        G6  ou   G*       C        Am
e|------0---------0---------0--------0--------0---------0----------
b|------1---------1---------3--------3--------1---------1----------
g|------0---------2---------0--------4--------0---------2----------
d|------3---------3---------5--------5--------2---------2----------
a|----------------3------------------5--------3---------0----------
E|-----------------------------------------------------------------
exibições 81.421
Acordes para:
    Composição: Aaron Kamin / Alex Band Colaboração e revisão:
    • Caio

    0 comentários

    mostrar mais comentários

    Conseguiu tocar?

    2 tocaram 0 ainda não

    Grave um vídeo tocando Could It Be Any Harder e mande pra gente!

    00:00 / 00:00
    outros vídeos desta música
    repetir qualidade Automático
    Outros vídeos desta música
    00:00 / 00:00
    Automático
    OK