Cifra Club

Shake It Up

The Cars

Cifra: Principal (violão e guitarra)
Selo Cifra Club: esta cifra foi revisada para atender aos critérios oficiais da nossa Equipe de Qualidade.
tom: F
E|----------------------------------------------------------------------|
B|--------------13-13~~~~~~~------13-13~~~~~~~--------13-13~~~~~~~~~~~~~|
G|------3/-12---12-13~~~~~~~3/-12-12-13~~~~---3/-12---12-13~~~~~~~~~~~~~|
D|----------------------------------------------------------------------|
A|----------------------------------------------------------------------|
E|----------------------------------------------------------------------|


E|----------------------------------------------------------------------|
B|--15-15-15-15-15-15-15-15-15-15-15-15-15-15-15-p13--------------------|
G|----------------------------------------------------------------------|
D|----------------------------------------------------------------------|
A|----------------------------------------------------------------------|
E|----------------------------------------------------------------------|


E|----------------------------------------------------------------------|
B|--------------13-13~~~~~~~------13-13~~~~~~~--------13-13~~~~~~~~~~~~~|
G|------3/-12---12-13~~~~~~~3/-12-12-13~~~~---3/-12---12-13~~~~~~~~~~~~~|
D|----------------------------------------------------------------------|
A|----------------------------------------------------------------------|
E|----------------------------------------------------------------------|


E|-------17-----15-------------13b15--11b12------------------11b12------|
B|-15b17---15b17---17b15--13~~~--------------13~~~11~13-13~~~-----------|
G|----------------------------------------------------------------------|
D|----------------------------------------------------------------------|
A|----------------------------------------------------------------------|
E|----------------------------------------------------------------------|

1st & third lines: slide 3 to 12 then double stops
2nd line is muted chicken picking on 15 B string before pulling off to 13
4th line: bu pick  bu pick bd pick, etc.


************************************

| ~  Vibrato
| /  Slide up
| b  Bend
| p  Pull off
Outros vídeos desta música
    64 exibições
      • ½ Tom
      • A
      • Bb
      • B
      • C
      • Db
      • D
      • Eb
      • E
      • F
      • F#
      • G
      • Ab
    • Adicionar à lista

    Afinação da cifra

    Afinador online

      0 comentários

      Ver todos os comentários

      Entre para o Cifra Club PRO

      Tenha acesso a benefícios exclusivos no App e no Site

      • Chega de anúncios

      • Badges exclusivas

      • Mais recursos no app do Afinador

      • Atendimento Prioritário

      • Aumente seu limite de lista

      • Ajude a produzir mais conteúdo

      Cifra Club Pro

      Aproveite o Cifra Club com benefícios exclusivos e sem anúncios
      Cifra Club Pro
      Aproveite o Cifra Club com benefícios exclusivos e sem anúncios
      Ops (: Contenido disponible sólo en portugués.
      OK