Cifra Club

What can I do

The Corrs

Cifra: Principal (violão e guitarra)
Selo Cifra Club: esta cifra foi revisada para atender aos critérios oficiais da nossa Equipe de Qualidade.
tom: A
Intro: :: A :  E/G#  : D : D ::
       :: A/C# : E : Bm7 : Bm7 ::

Parte 1:
A            E/G#           D
  I haven't slept at all in days
A/C#           E                   Bm7
  It's been so long since we've talked
A           E/G#           D
 And I have been here many times
A/C#      E                  Bm7
  I just don't know what I'm going wrong

Refrão:
A            E/G#           D
  What can I do to make you love me
A/C#         E              Bm7
  What can I do to make you care
A            E/G#            D
  What can I say to make you feel this
A/C#         E              Bm7
  What can I do to get you there

--> Aqui os 2 violões entram juntos fazendo esse riff que segue até o fim menos no refrão
e no Love me do final

e|-----------------------------------------------------
B|-----------------------------------------------------
G|--------4---4-----4---4-----------9---9-----11----11-
D|--------2---2-----2---2-----------7---7-----9-----9--
A|--0-0-0---0-----------------5-5-5---5---5/7-----7----
E|----------------4---4--------------------------------

e|-------------------------------------------------------
B|-------------------------------------------------------
G|--------4---4-----4---4-----------9---9-----11---11-11-
D|--------2---2-----2---2-----------7---7-----9----9--9--
A|--0-0-0---0-----------------5-5-5---5---5/7-----7------
E|----------------4---4----------------------------------


Parte 2:
A              E/G#          D
  There's only so much I can take
A/C#         E             Bm7
  And I just got to let it go
A         E/G#                D
  And who knows, I might feel better
A/C#         E               Bm7
  If I don't try and I don't hope

Refrão

Ponte:
F#m7                             A6  E  Esus  E
No more waiting, no more aching
F#m7                               A6  E  Esus  E
No more fighting, no more trying...


Parte 3:
A       E/G#                    D
  Maybe there's nothing more to say
A/C#       E             Bm7
  And in a funny way I'm calm
A             E/G#        D
  Because the power is not mine
A/C#       E            Bm7
  I'm just gonna let it fly

2x refrão


Dmaj7  E  F#m7  E/G#   
Love   me love me... (Até o final)
Outros vídeos desta música
    43.106 exibições
      • ½ Tom
      • A
      • Bb
      • B
      • C
      • Db
      • D
      • Eb
      • E
      • F
      • F#
      • G
      • Ab
    • Adicionar à lista

    Afinação da cifra

    Afinador online

      0 comentários

      Ver todos os comentários

      Entre para o Cifra Club PRO

      Tenha acesso a benefícios exclusivos no App e no Site

      • Chega de anúncios

      • Badges exclusivas

      • Mais recursos no app do Afinador

      • Atendimento Prioritário

      • Aumente seu limite de lista

      • Ajude a produzir mais conteúdo

      Cifra Club Pro

      Aproveite o Cifra Club com benefícios exclusivos e sem anúncios
      Cifra Club Pro
      Aproveite o Cifra Club com benefícios exclusivos e sem anúncios
      OK