Cifra Club

Animal Instinct

The Cranberries

Cifra: Versão 2 (violão e guitarra)
Selo Cifra Club: esta cifra foi revisada para atender aos critérios oficiais da nossa Equipe de Qualidade.
tom: G
From: "Zoo Phil" 
Date: Tue, 09 Nov 1999 15:28:48 PST

Intro and verse : Em/Am7/C9/D

                        Note : C9(x32030)

Interlude : G/D/C/D/G/D/C/D

Little solo :
h-----> Hammer on

D-9h10-9h10-9-10-12-12-12--10---10-10-9h10-9h10-9-10--5-5-5--7-------
A--------------------------------------------------------------------
E--------------------------------------------------------------------

Verse and chorus without interlude

End solo :

D-9h10-9h10-9-10-12-12-12--10---10-10-9h10-9h10-9-10--5-5-5--7-7-7---
A--------------------------------------------------------------------
E--------------------------------------------------------------------

D-5-5-5-7-7-7-9-9-9-7-7-7--9-9-9-7-7-7--5-5--5---7-7--7-9h10-9h10-9--
A--------------------------------------------------------------------
E--------------------------------------------------------------------

D-10-12-12-12-14-14-14---1414-14--12-12-12-12--10-10-10-9-9-9--------
A--------------------------------------------------------------------
E--------------------------------------------------------------------

D--5-5-5-7-7-7-5-5-5-7-7-7-9-9-9-7-7-7-5-5-5--7--7-7-----------------
A--------------------------------------------------------------------
E--------------------------------------------------------------------

something like that

if you have any comments  Z*

-

______________________________________________________
Outros vídeos desta música
    7.020 exibições
      • ½ Tom
      • A
      • Bb
      • B
      • C
      • Db
      • D
      • Eb
      • E
      • F
      • F#
      • G
      • Ab
    • Adicionar à lista

    Afinação da cifra

    Afinador online

      0 comentários

      Ver todos os comentários

      Entre para o Cifra Club PRO

      Tenha acesso a benefícios exclusivos no App e no Site

      • Chega de anúncios

      • Badges exclusivas

      • Mais recursos no app do Afinador

      • Atendimento Prioritário

      • Aumente seu limite de lista

      • Ajude a produzir mais conteúdo

      Cifra Club Pro

      Aproveite o Cifra Club com benefícios exclusivos e sem anúncios
      Cifra Club Pro
      Aproveite o Cifra Club com benefícios exclusivos e sem anúncios
      OK