Cifra Club

Been Down so Long

The Doors

Cifra: Principal
exibições 11.011
Tom: B
  (Introdução da gaita (0:00-1:10))
e|------------------------|-------------------------|-----------------------|---------------------------
B|------------------------|-------------------------|-----------------------|---------------------------
G|-----2b-0---------------|-------------------------|----2b-0---------------|---------------------------
D|-----------2------------|---------7---------------|----------2------------|---9-9-9-9-9-9--9-8-7------
A|------------------------|---------7---(+ou-17X)---|-----------------------|---9-9-9-9-9-9--9-8-7------
E|---------------3~-0-----|---------5---------------|--------------3~-0-----|---7-7-7-7-7-7--7-6-5------
   (0:00-1:28)                  (1:28-1:37)                 (1:37-1:45)               (1:45-1:51)    


e|------------------------|------------------------|-----------------------|---------------------------
B|------------------------|------------------------|-----------------------|---------------------------
G|----2b-0----------------|------------------------|----2b-0---------------|---------------------------
D|----------2-------------|--------7---------------|----------2------------|---9-9-9-9-9-9--9-8-7------
A|------------------------|--------7---(+ou-17X)---|-----------------------|---9-9-9-9-9-9--9-8-7------
E|--------------3~-0------|--------5---------------|--------------3~-0-----|---7-7-7-7-7-7--7-6-5------
     (1:51-2:17)               (2:17-2:27)               (2:27-2:35)                 (2:35-2:41)


e|------------------------|------------------------|-----------------------|---------------------------
B|------------------------|------------------------|-----------------------|---------------------------
G|----2b-0----------------|------------------------|----2b-0---------------|---------------------------
D|----------2-------------|--------7---------------|----------2------------|---9-9-9-9-9-9--9-8-7------
A|------------------------|--------7---(+ou-17X)---|-----------------------|---9-9-9-9-9-9--9-8-7------
E|--------------3~-0------|--------5---------------|--------------3~-0-----|---7-7-7-7-7-7--7-6-5------
     (2:41-3:09)                (3:09-3:18)                (3:18-3:26)               (3:26-3:31)

e|------------------------|------------------------|-----------------------|---------------------------
B|------------------------|------------------------|-----------------------|---------------------------
G|----2b-0----------------|------------------------|----2b-0---------------|---------------------------
D|----------2-------------|--------7---------------|----------2------------|---9-9-9-9-9-9--9-8-7------
A|------------------------|--------7---(+ou-17X)---|-----------------------|---9-9-9-9-9-9--9-8-7------
E|--------------3~-0------|--------5---------------|--------------3~-0-----|---7-7-7-7-7-7--7-6-5------
     (3:31-3:59)              (3:59-4:09)               (4:09-4:16)               (4:16-4:21)

                            
                             (solo do teclado e da gaita (4:34-5:11))
e|------------------------|-----------------|---------------|----------------|--------------------------
B|------------------------|-----------------|---------------|----------------|--------------------------
G|----2b-0----------------|-----------------|---------------|----------------|--------------------------
D|----------2-------------|--------2--------|------7--------|--------2-------|---9-9-9-9-9-9--9-8-7-----
A|------------------------|--------2--------|------7--------|--------2-------|---9-9-9-9-9-9--9-8-7-----
E|--------------3~-0------|--------0--------|------5--------|--------0-------|---7-7-7-7-7-7--7-6-5-----
    (4:21-4:34)              (4:34-4:50)      (4:50-4:59)       (4:59-5:07)      (5:07-5:11)


e|------------------------|------------------------|-----------------------|---------------------------
B|------------------------|------------------------|-----------------------|---------------------------
G|----2b-0----------------|------------------------|----2b-0---------------|---------------------------
D|----------2-------------|--------7---------------|----------2------------|---9-9-9-9-9-9--9-8-7------
A|------------------------|--------7---(+ou-17X)---|-----------------------|---9-9-9-9-9-9--9-8-7------
E|--------------3~-0------|--------5---------------|--------------3~-0-----|---7-7-7-7-7-7--7-6-5------
     (5:11-5:40)             (5:40-5:50)                (5:50-5:57)               (5:57-6:03)

e|------------------------|------------------------|-----------------------|---------------------------
B|------------------------|------------------------|-----------------------|---------------------------
G|----2b-0----------------|------------------------|----2b-0---------------|---------------------------
D|----------2-------------|--------7---------------|----------2------------|---9-9-9-9-9-9--9-8-7------
A|------------------------|--------7---(+ou-17X)---|-----------------------|---9-9-9-9-9-9--9-8-7------
E|--------------3~-0------|--------5---------------|--------------3~-0-----|---7-7-7-7-7-7--7-6-5------
    (6:03-6:31)              (6:31-6:40)               (6:40-6:48)                (6:48-6:53)

e|---------------------------------------
B|---------------------------------------
G|---------------------------8-7---------
D|-------9-9-7-7-6-6-5-5-4---7-6---------
A|-------7-7-5-5-4-4-3-3-2---8-7---------
E|---------------------------------------
    (6:53-7:14)
Acordes para:
    Composição: Jim Morrison / John Densmore / Ray Manzarek / Robby KriegerColaboração e revisão:
    • Leonardo Valdo

    0 comentários

      mostrar mais comentários

      Conseguiu tocar?

      0tocaram0ainda não

      Grave um vídeo tocando Been Down so Long e mande pra gente!

      00:00 / 00:00
      outros vídeos desta música
      repetirqualidadeautomática
      Outro vídeos desta música
        00:00 / 00:00
        automática
        OK