Enviar cifraEntrar

Break On Through (live)

The Doors

Cifra: Principal
exibições 29.532
Tom: D
Início junto com o teclado


E|-----12/7-0---------------------


Depois entra o riff na introdução e nos versos:

A|------7-5----7-7-----5-7--------------
E|----7------7------7-------------------


Naquela parte:
D        D    D        D
Tried to run, tried to hide

Refrão:

e|----------------------------------------------
B|----------------------------------------------
G|---------------------0h1h2--------------------
D|--------------0h1h2----------2--0-2-----------
A|-------0h1h2----------------------------------
E|--0h3-----------------------------------------


e|--------------------------------
B|--------------------------------
G|---------------------0h1h2------
D|--------------0h1h2----------2--
A|-------0h1h2--------------------
E|--0h3---------------------------


D  D D  D D     D  D D
Everybody loves my baby

quando entra:
G#
"Made the scene, week to week, day to day, hour to hour"
Assim:

e|---15------
B|---15------
G|---13------

junto com o tempo da música, entre os tempos solte um E corda solta E|--0-- 

A letra:

You know the day destroys the night 
Night divides the day 
Tried to run 
Tried to hide 
Break on through to the other side 
Break on through to the other side 
Break on through to the other side, yeah 

We chased our pleasures here 
Dug our treasures there 
But can you still recall 
The time we cried 
Break on through to the other side 
Break on through to the other side 

Yeah! 
C'mon, yeah 

Everybody loves my baby 
Everybody loves my baby 
She get(s high) 
She get(s high) 
She get(s high) 
She get(s high) 

I found an island in your arms 
Country in your eyes 
Arms that chain 
Eyes that lie 
Break on through to the other side 
Break on through to the other side 
Break on through, oww! 
Oh, yeah! 

Made the scene 
Week to week 
Day to day 
Hour to hour 
The gate is straight 
Deep and wide 
Break on through to the other side 
Break on through to the other side 
Break on through 
Break on through 
Break on through 
Break on through 
Yeah, yeah, yeah, yeah 
Yeah, yeah, yeah, yeah, yeah 
  • 1
  • 2
  • 3
  • 4
  • 5
  • 6
  • 7
  • 8
  • 9
  • 10
  • 11
  • 12
    Acordes para:
      Composição: J. Morrison / John Densmore / Ray Manzarek / Robby KriegerColaboração e revisão:
      • caramez

      0 comentários

        mostrar mais comentários

        Conseguiu tocar?

        0tocaram0ainda não

        Grave um vídeo tocando Break On Through (live) e mande pra gente!

        00:00 / 00:00
        outros vídeos desta música
        repetirqualidadeautomática
        • automática
        Outro vídeos desta música
          00:00 / 00:00
          automática
          • automática
          Acordes para:violão e guitarra
          dificuldadeexibiçõescontribuições
          fecharplay/pause subir/descer velocidade
            Acordes para:violão e guitarra
            acordes
            fechar
            OK