Cifra Club

Easy Ride

The Doors

Cifra: Principal
exibições 8.114
Tom: G

  G
E|-----------15-----------------15---|
B|-----------------------------------|
G|-12/16------------12/16------------|
D|-----------------------------------|
A|-----------------------------------|
E|-----------------------------------|


  C
E|-----------8------------------8----|
B|-----------------------------------|
G|-5/9----------------5/9------------|
D|-----------------------------------|
A|-----------------------------------|
E|-----------------------------------|


Riff principal:

  G
e|----------15-------13--------12--------10--|
B|-------------------------------------------|
G|-12/16--------14-------12------10----------|
D|-----------------------------|
A|-----------------------------|
E|-----------------------------|


  C
e|--------8--------6--------5--------3-|
B|-------------------------------------|
G|-5/9---------7--------5--------3-----|
D|-----------------------|
A|-----------------------|
E|-----------------------|






  F                        C
The mask that you wore...

e|------------------------|------------------------------------|
B|------------------------|--------------------1---1-----------|
G|------------------------|----------------0---------2--0------|
D|---3------3-------------|---------1h2-------------------2----|
D|------3---------3-------|--3---3-----------------------------|
E|------------------------|------------------------------------|


  F                              F      F#        G
e|------------------------|-------------------------------------|
B|------------------------|-------------------------------------|
G|------------------------|-------------------------------------|
D|---3------3-------------|----3--3--3----4---------5-----5------------------|
D|------3---------3-------|----------------------------5-----5---------------|
E|------------------------|-------------------------------------5b6—5b6---3--|


Cifra:
G
And I know it will be
C
An easy ride, all right
G
And I know it will be
C
An easy ride, okay

F
The mask that you wore
C
My fingers would explore
F                                       F#    G     
The costume of control  excitement soon unfolds

And I know
It will be
An easy ride, yeah
Joy, fought vaguely
With your pride
With your pride

Solo : 


e|---10b11---10b11----10--8--------8--------10b11------8------------|
B|---------------------------10------10------------10-----8—9--10---|
G|------------------------------------------------------------------|
D|------------------------------------------------------------------|
D|------------------------------------------------------------------|
E|------------------------------------------------------------------|


e|--------------10--9--8---------------------------------|
B|---------------------------10--------------------------|
G|----8h9h10---------------------10---8------------------|
D|-----------------------------------------10--8---------|
D|-------------------------------------------------10----|
E|------------------------------------------------------|


Like polished stone
Like polished stone
I see your eyes
Like burnin' glass
Like burnin' glass
I hear you smile,
Smile, babe

The mask that you wore
My fingers would explore
The costume of control
Excitement soon unfolds


e|-15--14--13--12--------------------------------------|
B|------------------16--15--14--13--12-----------------|
G|-----------------------------------------15--14--13--|
D|-------------------------------------|
A|-------------------------------------|
E|-------------------------------------|


Easy, baby

Coda queen, now, be my bride
Rage in darkness by my side
Seize the summer in your pride
Take the winter in your stride

Let's ride
Easy, easy...
All right
Acordes para:
    Composição: Jim MorrisonColaboração e revisão:
    • Luis Braschi

    0 comentários

      mostrar mais comentários

      Conseguiu tocar?

      0tocaram0ainda não

      Grave um vídeo tocando Easy Ride e mande pra gente!

      00:00 / 00:00
      outros vídeos desta música
      repetirqualidadeautomática
      Outro vídeos desta música
        00:00 / 00:00
        automática
        OK