Cifra Club

Aprenda

Hotel California

Eagles

Cifra: Solo (violão e guitarra)
Tom: G
[Parte 1]

Guitarra 1:

E|------------------------------------------|
B|-------10-12-12b15-----x---10-12----------|
G|-/11-------------------x---------\9~------|
D|------------------------------------------|
A|------------------------------------------|
E|------------------------------------------|

E|------------------------------------------|
B|-----7------------------------------------|
G|-7h9---7b-----------4h7p4-----------------|
D|----------9-8b~\----------7b9r------------|
A|------------------------------------------|
E|------------------------------------------|

E|------------------------------------------|
B|---------7-----------------7--------------|
G|-x-x-7h9---7b----------7h9---7b-----------|
D|-x-x----------9p8-9~------------9p8-9-----|
A|------------------------------------------|
E|------------------------------------------|

E|------------------------------------------|
B|---------10-----------10-8b9--------------|
G|-7-9b11------b11r9--7---------------------|
D|------------------------------------------|
A|------------------------------------------|
E|------------------------------------------|

E|-7---10b12--10--b12r10p7---------10-------|
B|---7----------------------10b12-----b12r10|
G|------------------------------------------|
D|------------------------------------------|
A|------------------------------------------|
E|------------------------------------------|

E|----------------10------------------------|
B|-8--10--x---------------------------------|
G|--------x-9b11------b11r9p7---7p6-7~------|
D|----------------------------9---------9-7-|
A|------------------------------------------|
E|------------------------------------------|

E|------------------------------------------|
B|-----7b8--7b8r7--------7b8--7b8--7b8r7----|
G|-7-9-------------9-8-9--------------------|
D|------------------------------------------|
A|------------------------------------------|
E|------------------------------------------|

E|----------------------7-------------------|
B|----------7-10------7---------------------|
G|-9-8-9b11------9b11-----9b11r9p7--9b11~~--|
D|------------------------------------------|
A|------------------------------------------|
E|------------------------------------------|

E|------------------------------------------|
B|------------------------------------------|
G|-b11r9p7----------------------------------|
D|---------9\-------------------------------|
A|------------------------------------------|
E|------------------------------------------|


[Parte 2]

Guitarra 2:

E|------7-7------7------7-7------7------7---|
B|------7-7------7------7-7------7------7---|
G|-9b11-----9b11---9b11-----9b11---9b11-----|
D|------------------------------------------|
A|------------------------------------------|
E|------------------------------------------|

E|------------------------------------------|
B|------------------------------------------|
G|-9b11r9p7--9-7-9b11----b11~---------------|
D|------------------------------------------|
A|------------------------------------------|
E|------------------------------------------|

E|------------------------------------------|
B|------------7-----------------------------|
G|-11b14r-------7b-----7--------------------|
D|------------------9-----------------------|
A|------------------------------------------|
E|------------------------------------------|

E|------7-------------10--------------------|
B|--------10-7-10/12-------12-11-10-9~------|
G|-9b11-------------------------------------|
D|------------------------------------------|
A|------------------------------------------|
E|------------------------------------------|

E|------------------------------------17----|
B|-------------12--------15----17b19--------|
G|-14b16---b16----14-16---------------------|
D|------------------------------------------|
A|------------------------------------------|
E|------------------------------------------|

E|-----------------------15-16-17-18--------|
B|-b19r17-15-17-15-17b19--------------------|
G|------------------------------------------|
D|------------------------------------------|
A|------------------------------------------|
E|------------------------------------------|

E|------------------------------------------|
B|-17b19r-15~--17b19------------------------|
G|------------------------------------------|
D|------------------------------------------|
A|------------------------------------------|
E|------------------------------------------|

E|--------17--17----------------------------|
B|-17b19---------b19r-b19~---17b19r--15-----|
G|------------------------------------------|
D|------------------------------------------|
A|------------------------------------------|
E|------------------------------------------|

E|--------17--------17--------17------------|
B|-17b19-----17b19-----17b19-----17b19------|
G|------------------------------------------|
D|------------------------------------------|
A|------------------------------------------|
E|------------------------------------------|

E|-17---------------------------------------|
B|----17b19r17p15--17b19~-------------------|
G|------------------------------------------|
D|------------------------------------------|
A|------------------------------------------|
E|------------------------------------------|


[Parte 3]

Guitarra 1:

E|------------------------------------------|
B|-13b15r13p12-12--13b15~-------------------|
G|------------------------------------------|
D|------------------------------------------|
A|------------------------------------------|
E|------------------------------------------|

E|-------10-------10------------------------|
B|-13b15----13b15---------------/11---------|
G|-------------------11\9p7-----------------|
D|--------------------------9-8-------------|
A|------------------------------------------|
E|------------------------------------------|


[Parte 4]

Guitarra 2:

E|------------------------------------------|
B|-17b19---b19r-b19r-b19r-b19r-b19r-b19r----|
G|------------------------------------------|
D|------------------------------------------|
A|------------------------------------------|
E|------------------------------------------|

E|------------------------------------------|
B|-b19r-b19r-b19r-b19r17p15--19--17b--------|
G|------------------------------------16~---|
D|------------------------------------------|
A|------------------------------------------|
E|------------------------------------------|

E|------------------------------------------|
B|------------------------------------------|
G|-14----------------------14~--------------|
D|----16\14p12----12-14/16------------------|
A|-------------14---------------------------|
E|------------------------------------------|


[Parte 5]

Guitarra 1:

E|--------10--------------------------------|
B|-13b15--------12----10--------------------|
G|--------------------------12----11--------|
D|-----------12----12-------------------12--|
A|-----------------------12----12----12-----|
E|------------------------------------------|

E|---------------------12b14--12--10--------|
B|------------------------------------------|
G|---------------11~------------------------|
D|------------------------------------------|
A|-12\10p9-10/12----------------------------|
E|------------------------------------------|

E|------------------------------------------|
B|----------------------------10~---11b12---|
G|-12b14r12-11~---11-12~---12---------------|
D|------------------------------------------|
A|------------------------------------------|
E|------------------------------------------|

E|------------------------------------------|
B|-11~---14-15~--17~------------------------|
G|------------------------------------------|
D|------------------------------------------|
A|------------------------------------------|
E|------------------------------------------|


Guitarra 2:

E|------7-----------------------------------|
B|--------7-10---7--------------------------|
G|-7b9---------7-----9---7------------------|
D|-----------------9---9-----7-----------7~-|
A|-------------------------9---9\7p5-7/9----|
E|------------------------------------------|

E|-9b10--7----------------------------------|
B|---------10----------------------7~-------|
G|------------9b11r9-7~---7-9~---9----------|
D|------------------------------------------|
A|------------------------------------------|
E|------------------------------------------|

E|-----------6--7--9------------------------|
B|-7b8--7~----------------------------------|
G|------------------------------------------|
D|------------------------------------------|
A|------------------------------------------|
E|------------------------------------------|


[Parte 6]

Guitarra 1:

E|------------------------------------------|
B|-19p15----19p15----19p15----19p15----19p15|
G|-------16-------16-------16-------16------|
D|------------------------------------------|
A|------------------------------------------|
E|------------------------------------------|

E|------------------------------/18~--------|
B|------17p14----17p14----17p14-------------|
G|-16---------15-------15-------------------|
D|------------------------------------------|
A|------------------------------------------|
E|------------------------------------------|

E|------------------------------------------|
B|-17p14----17p14----17p14----17p14----17p14|
G|-------14-------14-------14-------14------|
D|------------------------------------------|
A|------------------------------------------|
E|------------------------------------------|

E|------------------------------/16~--------|
B|------15p12----15p12----15p12-------------|
G|-14---------13-------13-------------------|
D|------------------------------------------|
A|------------------------------------------|
E|------------------------------------------|

E|------------------------------------------|
B|-15p12----15p12----15p12----15p12----15p12|
G|-------12-------12-------12-------12------|
D|------------------------------------------|
A|------------------------------------------|
E|------------------------------------------|

E|------10-------10-------10----/14~--------|
B|---------10-------10-------10-------------|
G|-12---------11-------11-------------------|
D|------------------------------------------|
A|------------------------------------------|
E|------------------------------------------|

E|-7-----7-----7-----7-----7----------------|
B|---8-----8-----8-----8-----8--------------|
G|-----9-----9-----9-----9-----9/11---------|
D|------------------------------------------|
A|------------------------------------------|
E|------------------------------------------|

E|9-------9-------9-------9-------10p9-10-12|
B|--11------11------11------11--------------|
G|-----11------11------11------11-----------|
D|------------------------------------------|
A|------------------------------------------|
E|------------------------------------------|

E|-14p10----14p10----14p10----14p10----14p10|
B|-------12-------12-------12-------12------|
G|------------------------------------------|
D|------------------------------------------|
A|------------------------------------------|
E|------------------------------------------|

E|-----------------------------------/18~---|
B|-12---17p14-----------17------------------|
G|------------15-16b18-----b18r16-15--------|
D|------------------------------------------|
A|------------------------------------------|
E|------------------------------------------|

E|------------------------------------------|
B|-17p14----17p14----17p14----17p14----17p14|
G|-------14-------14-------14-------14------|
D|------------------------------------------|
A|------------------------------------------|
E|------------------------------------------|

E|-----------------------------------/16~---|
B|------15p12-----------15------------------|
G|-14---------13-14b16-----b16r14-13--------|
D|------------------------------------------|
A|------------------------------------------|
E|------------------------------------------|

E|------------------------------------------|
B|-15p12----15p12----15p12----15p12----15p12|
G|-------12-------12-------12-------12------|
D|------------------------------------------|
A|------------------------------------------|
E|------------------------------------------|

E|------10---------------------------/14~---|
B|---------10-----------13------------------|
G|-12---------11-12b14-----b14r12-11--------|
D|------------------------------------------|
A|------------------------------------------|
E|------------------------------------------|

E|-7-----7-----7-----7-----7----------------|
B|---8-----8-----8-----8-----8--------------|
G|-----9-----9-----9-----9-----9/11---------|
D|------------------------------------------|
A|------------------------------------------|
E|------------------------------------------|

E|-9-------9-------9-------9-------9--------|
B|---11------11------11------11------11-----|
G|------11------11------11------11------11--|
D|------------------------------------------|
A|------------------------------------------|
E|------------------------------------------|

E|------------------------------------------|
B|------------------------------------------|
G|------------------------------------------|
D|-9-9-9-9----------------------------------|
A|-9-9-9-9----------------------------------|
E|-7-7-7-7----------------------------------|


Guitarra 2:

E|-10p7---10p7---10p7---10p7---10p7---------|
B|------7------7------7------7------7-------|
G|------------------------------------------|
D|------------------------------------------|
A|------------------------------------------|
E|------------------------------------------|

E|-9p6---9p6---9p6-/14~---------------------|
B|-----7-----7------------------------------|
G|------------------------------------------|
D|------------------------------------------|
A|------------------------------------------|
E|------------------------------------------|

E|-9p5---9p5---9p5---9p5---9p5--------------|
B|-----5-----5-----5-----5-----5------------|
G|------------------------------------------|
D|------------------------------------------|
A|------------------------------------------|
E|------------------------------------------|

E|-7p4---7p4---7p4-/12~---------------------|
B|-----5-----5------------------------------|
G|------------------------------------------|
D|------------------------------------------|
A|------------------------------------------|
E|------------------------------------------|

E|-7p3---7p3---7p3---7p3---7p3--------------|
B|-----3-----3-----3-----3-----3------------|
G|------------------------------------------|
D|------------------------------------------|
A|------------------------------------------|
E|------------------------------------------|

E|-5p2---5p2---5p2-/10~---------------------|
B|-----3-----3------------------------------|
G|------------------------------------------|
D|------------------------------------------|
A|------------------------------------------|
E|------------------------------------------|

E|-3p0---3p0---3p0---3p0---3p0--------------|
B|-----0-----0-----0-----0-----0------------|
G|------------------------------------------|
D|------------------------------------------|
A|------------------------------------------|
E|------------------------------------------|

E|-6p2---6p2---6p2---6p2---7p6-7-9----------|
B|-----2-----2-----2-----2------------------|
G|------------------------------------------|
D|------------------------------------------|
A|------------------------------------------|
E|------------------------------------------|

E|-10p7---10p7---10p7---10p7---10p7---------|
B|------7------7------7------7------7-------|
G|------------------------------------------|
D|------------------------------------------|
A|------------------------------------------|
E|------------------------------------------|

E|-9p6---------9---------/14----------------|
B|-----7-9b11----b11r9-7--------------------|
G|------------------------------------------|
D|------------------------------------------|
A|------------------------------------------|
E|------------------------------------------|

E|-9p5---9p5---9p5---9p5---9p5--------------|
B|-----5-----5-----5-----5-----5------------|
G|------------------------------------------|
D|------------------------------------------|
A|------------------------------------------|
E|------------------------------------------|

E|-7p4--------7--------/12------------------|
B|-----5-7b9----b9r7-5----------------------|
G|------------------------------------------|
D|------------------------------------------|
A|------------------------------------------|
E|------------------------------------------|

E|-7p3---7p3---7p3---7p3---7p3--------------|
B|-----3-----3-----3-----3-----3------------|
G|------------------------------------------|
D|------------------------------------------|
A|------------------------------------------|
E|------------------------------------------|

E|-5p2--------5--------/10~-----------------|
B|-----3-5b7----b7r5-3----------------------|
G|------------------------------------------|
D|------------------------------------------|
A|------------------------------------------|
E|------------------------------------------|

E|-3p0---3p0---3p0---3p0---3p0--------------|
B|-----0-----0-----0-----0-----0h2----------|
G|------------------------------------------|
D|------------------------------------------|
A|------------------------------------------|
E|------------------------------------------|

E|-6p2---6p2---6p2---6p2---6p2--------------|
B|-----2-----2-----2-----2-----2------------|
G|------------------------------------------|
D|------------------------------------------|
A|------------------------------------------|
E|------------------------------------------|

E|------------------------------------------|
B|------------------------------------------|
G|-4-4-4-4----------------------------------|
D|-4-4-4-4----------------------------------|
A|-2-2-2-2----------------------------------|
E|------------------------------------------|
Composição de Don Felder / Don Henley / Glenn Frey
Colaboração e revisão:
  • Vinícius Dias
6.248 exibições
  • Simplificar cifra
    • ½ Tom
    • A
    • Bb
    • B
    • C
    • Db
    • D
    • Eb
    • E
    • F
    • F#
    • G
    • Ab
  • Adicionar à lista

    0 comentários

    Mostrar mais comentários

    Conseguiu tocar?

    1 Tocaram 0 Ainda não

    Grave um vídeo tocando Hotel California e mande pra gente!

    00:00 / 00:00
    outros vídeos desta música
    repetir qualidade Automático
    Outros vídeos desta música
    00:00 / 00:00
    Automático
    Capítulos
    • Apresentação / Equipamentos
    • Guitarra 1 - Parte 1
    • Guitarra 2 - Parte 2
    • Guitarra 1 - Parte 3
    • Guitarra 2 - Parte 4
    • Guitarra 1 - Parte 5
    • Guitarra 2 - Parte
    • Guitarra 1 - Parte 6
    • Guitarra 2 - Parte 6
    • Encerramento
    OK