Cifra Club

Aprenda

Take Everything Back

The Faulty

Cifra: Principal (violão e guitarra)
tom: C
introdução:

(guitarra 1)
e---------------------------------------------------------------------------------I
b----8--7--5--5--5---3--3--3-5--5--5----------------------------------------------I
g-----0--0--0--0--0---0--0----0--0------------------------------------------------I
d---------------------------------------------------------------------------------I
a---7--7--7--7--7--73--3--3-5--5--5-----------------------------------------------I
e---------------------------------------------------------------------------------I

(guitarra 2)
e---------------------------------------------------------------------------------I
b------------12---8------------8---12------------12---8---------------------------I
g----9--9--------------9--9--------------9--9-------------------------------------I
d---------------------------------------------------------------------------------I
a---------------------------------------------------------------------------------I
e---------------------------------------------------------------------------------I

riff principal:

(guitara 1)
e-----------------------       -------------------------------------------------I
b-----------------------       -------------------------------------------------I
g----------------5------ três  --44444444555555555------------------------------I
d-----5-575----5--5----- vezes --4444444455555555-------------------------------I
a---77-7---7-33-3--3----       --2222222233333333-------------------------------I
e-----------------------       -------------------------------------------------I

(guitarra 2)
e-----------------------       -------------------------------------------------I
b-----------------------       -------------------------------------------------I
g----------------------- três  -------------------------------------------------I
d---5---------3--------- vezes --3-------5--------------------------------------I
a---7---------5---------       --5-------7--------------------------------------I
e-----------------------       -------------------------------------------------I

(parte rápida)
e---------------------------------------------------------------------------------I
b------8-7-8-108-7--------------------------8-7-8-101210--------------------------I
g--9----------------555-55--777-77------9----------------555-55--777-77-----------I
d--9----------------555-55--777-77------9----------------555-55--777-77-----------I
a--7----------------333-33--555-55------7----------------333-33--555-55-----------I
e---------------------------------------------------------------------------------I

(refrão)
e---------------------------------------------------------------------------------I
b-----87-77-8-------87-77-10------------------------------------------------------I
g---------------------------------------------------------------------------------I
d-2-------------2-----------------------------------------------------------------I
a-2-------------2-----------------------------------------------------------------I
e-0-------------0-----------------------------------------------------------------I

(fim)
e---------------------------------------------------------------------------------I
b---------------------------------------------------------------------------------I
g---------------------------------------------------------------------------------I
d-55555555444444445555555522224444------------------------------------------------I
a-77777777555555553333333300002222------------------------------------------------I
e---------------------------------------------------------------------------------I
Colaboração e revisão:
  • Eduardo Figueiredo
1.539 exibições
    • ½ Tom
    • A
    • Bb
    • B
    • C
    • Db
    • D
    • Eb
    • E
    • F
    • F#
    • G
    • Ab
  • Adicionar à lista

    0 comentários

    Ver todos os comentários

    Conseguiu tocar?

    0 Tocaram 0 Ainda não

    Grave um vídeo tocando Take Everything Back e nos envie!

    00:00 / 00:00
    outros vídeos desta música
    repetir qualidade Automático
    Outros vídeos desta música
    00:00 / 00:00
    Automático

    Cifra Club Pro

    Aproveite o Cifra Club com benefícios exclusivos e sem anúncios
    Cifra Club Pro
    Aproveite o Cifra Club com benefícios exclusivos e sem anúncios
    OK