Cifra Club

Doginabag

The Fratellis

Cifra: Versão 3 (violão e guitarra)
Selo Cifra Club: esta cifra foi revisada para atender aos critérios oficiais da nossa Equipe de Qualidade.
tom: Cm
E|----------------|
B|----------------|
G|----------0-----|
D|------0-3-------| x18 then
A|----2-----------|
E|--3-------------|

E|-----------------|
B|-----------------|
G|--------3-0------|
D|------0----------|
A|----2------------|
E|--3--------------|

While that riff is being played theres another guitar that plays the chords

  G  A# C
E|-3--3--0-|
B|-0--3--1-|
G|-0--3--0-|
D|-0--3--2-|
A|-2--1--3-|
E|-3--X--X-|

then play this 7 more times
E|----------------|
B|----------------|
G|----------0-----|
D|------0-3-------|
A|----2-----------|
E|--3-------------|

then
  A# A  G# G
E|-3--2--1--0-----------------------------------------|
B|-3--2--1--0-----------------------------------------|
G|-3--2--1--0| The pattern goes A# x4, A x2, G# x2, G--| x1
D|-3--2--1--0-----------------------------------------|
A|-1--0--X--X-----------------------------------------|
E|-X--X--X--X-----------------------------------------|

After that sequence is played let the G ring and play this over it
E|----------------|
B|----------------|
G|----------0-----|
D|------0-3-------| x2
A|----2-----------|
E|--3-------------|

Then the chord sequence again
A# x4, A x2, G# x2, G x1

Then this again
E|----------------|
B|----------------|
G|----------0-----|
D|------0-3-------| x18
A|----2-----------|
E|--3-------------|

then this once
E|-----------------|
B|-----------------|
G|--------3-0------|
D|------0----------|
A|----2------------|
E|--3--------------|

Back to this 7 more times
E|----------------|
B|----------------|
G|----------0-----|
D|------0-3-------|
A|----2-----------|
E|--3-------------|

then
A# x4, A x2, G# x2, G x1

then this
E|----------------|
B|----------------|
G|----------0-----|
D|------0-3-------| x2
A|----2-----------|
E|--3-------------|

G  O:
this is the backround of the solo
E|----------------|
B|----------------|
G|----------0-----|
D|------0-3-------| x12
A|----2-----------|
E|--3-------------|

then
A# x4, A x2, G# x2, G x1

play this twice
E|----------------|
B|----------------|
G|----------0-----|
D|------0-3-------| x2
A|----2-----------|
E|--3-------------|

the part after that I am no that sure of how its played it comes out of that Es-335 sounding phase with
E|----------------|
B|----------------|
G|----------0-----|
D|------0-3-------| x9
A|----2-----------|
E|--3-------------|

then
E|-----------------|
B|-----------------|
G|--------3-0------|
D|------0----------| x1
A|----2------------|
E|--3--------------|

then this
E|----------------|
B|----------------|
G|----------0-----|
D|------0-3-------| x2
A|----2-----------|
E|--3-------------|

and then it goes
A# x4, A x2, G# x2, G x1

then this
E|----------------|
B|----------------|
G|----------0-----|
D|------0-3-------| x2
A|----2-----------|
E|--3-------------|
Outros vídeos desta música
    0 exibições
      • ½ Tom
      • Am
      • Bbm
      • Bm
      • Cm
      • C#m
      • Dm
      • Ebm
      • Em
      • Fm
      • F#m
      • Gm
      • G#m
    • Adicionar à lista

    Afinação da cifra

    Afinador online

      0 comentários

      Ver todos os comentários

      Conseguiu tocar?

      0Tocaram0Ainda não

      Grave um vídeo tocando Doginabag e nos envie!

      Toque também

      1. Imagem do artista The Pigeon DetectivesIm Not Sorry The Pigeon Detectives
      2. Imagem do artista Maxïmo ParkApply Some Pressure Maxïmo Park
      3. Imagem do artista Little Man TateWhat What You Got Little Man Tate
      4. Imagem do artista Dirty Pretty ThingsBang Bang You're Dead Dirty Pretty Things

      Entre para o Cifra Club PRO

      Tenha acesso a benefícios exclusivos no App e no Site

      • Chega de anúncios

      • Badges exclusivas

      • Mais recursos no app do Afinador

      • Atendimento Prioritário

      • Aumente seu limite de lista

      • Ajude a produzir mais conteúdo

      Cifra Club Pro

      Aproveite o Cifra Club com benefícios exclusivos e sem anúncios
      Cifra Club Pro
      Aproveite o Cifra Club com benefícios exclusivos e sem anúncios
      Ops (: Contenido disponible sólo en portugués.
      OK