Cifra Club

Lupe Brown

The Fratellis

Cifra: Principal (violão e guitarra)
Selo Cifra Club: esta cifra foi revisada para atender aos critérios oficiais da nossa Equipe de Qualidade.
tom: E
E |-------------------------------------------------------|
B |-------------------------------------------------------|
G |-------------------------------------------------------|
D |-------------------------------------------------  x 3-|
A |-------------------------------------------------------|
E |----0-0-0-7-0-0-5-0-4-0-2---0-0-0-4-0-0-9-0-11-12------|

E |----------------------------------------7-7-7-7-7-7-7-7-7-7-7-7-7-7-7-7-]
B |----------------------------------------7-7-7-7-7-7-7-7-7-7-7-7-7-7-7-7-]
G |----------------------------------------8-8-8-8-8-8-8-8-8-8-8-8-8-8-8-8-]
D |----------------------------------------9-9-9-9-9-9-9-9-9-9-9-9-9-9-9-9-]
A |----------------------------------------9-9-9-9-9-9-9-9-9-9-9-9-9-9-9-9-]
E |----0-0-0-7-0-0-5-0-4-0-2---0-2-4-5-7-9-7-7-7-7-7-7-7-7-7-7-7-7-7-7-7-7-]

          E                C#m
Well just slow down come on Lupe Brown
F#m
Tell Desdemona that I'm ready to leave
           B
Well she's nothing much to look at and she's hard to believe

          E                C#m
Don't go down throw your arms around
F#m
Every little psycho that you happen to see
B
Well you meant everything to them
But you meant nothing to me

            E
Well you're girlfriend made me itch
            A
And though I'll keep you in mind I would be happy to switch
        E
I don't know where you got that voice
        A
I would sell you to London if you gave me the choice

      E*                             G#m*
E |--------12----------12---------|-11----------11----------------|
B |-----12----12----12----12--[2x]|----12----12----12----12--[2x]-|
G |--13----------13---------------|-------13----------13----------|
D |-------------------------------|-------------------------------|
A |-------------------------------|-------------------------------|
E |-------------------------------|-------------------------------|
      A*                             B*
E |--------12----------12---------|-------------------------------|
B |-----14----14----14----14-[2x]-|-------------------------------|
G |--14----------14---------------|-------------------------------|
D |-------------------------------|-9---9~------9----9~-----------|
A |-------------------------------|-9---9~------9----9~-----------|
E |-------------------------------|-7---7~------7----7~-----------|

E*                      G#m*
Check those old clothes and those red bows
       A*
Though you're a scrawny pup I
                                 B*
Would be happy just to cheer you up, oh yes

Repetir durante o resto

Well just slow down come on Lupe Brown
Tell Desdemona that I'm ready to leave
Well she's nothing much to look at and she's hard to believe
Don't go down throw your arms around
Every little psycho that you happen to see
Well you meant everything to them
But you meant nothing to me

You got nothing I wish to steal
Cause I got nothing to give you on account of Lucille
She don't walk like a cripple should
Well she's Columbia's finest oh she's better than good

      E*                             G#m*
E |--12----------12---------------|--------11----------13---------|
B |-----12----12----12----12--[2x]|-----12----12----12----12--[2x]|
G |--------13----------13---------|--13----------13---------------|
D |-------------------------------|-------------------------------|
A |-------------------------------|-------------------------------|
E |-------------------------------|-------------------------------|
      A*                             B*
E |--12----------12---------------|-------------------------------|
B |-----14----14----14----14-[2x]-|-------------------------------|
G |--------14----------14---------|-------------------------------|
D |-------------------------------|-9---9~------9----9~-----------|
A |-------------------------------|-9---9~------9----9~-----------|
E |-------------------------------|-7---7~------7----7~-----------|

Wednesday's DJ's came in side ways
Yelling for the mother of the sister
And the brother of Orla the tease

 E
E |------------------------------------------------------|
B |------------------------------------------------------|
G |------------------------------------------------------|
D |------------------------------------------------  x 3-|
A |------------------------------------------------------|
E |---0-0-0-7-0-0-5-0-4-0-2---0-0-0-4-0-0-9-0-11-12------|

E |---------------------------------------7-7-7-7-7-7-7-7-9--9--9--9--9--9--9--9-|
B |---------------------------------------7-7-7-7-7-7-7-7-9--9--9--9--9--9--9--9-|
G |---------------------------------------8-8-8-8-8-8-8-8-10-10-10-10-10-10-10-10|
D |---------------------------------------9-9-9-9-9-9-9-9-11-11-11-11-11-11-11-11|
A |---------------------------------------9-9-9-9-9-9-9-9-11-11-11-11-11-11-11-11|
E |---0-0-0-7-0-0-5-0-4-0-2---0-2-4-5-7-9-7-7-7-7-7-7-7-7-9--9--9--9--9--9--9--9-|

          F#                D#m
Well just slow down come on Lupe Brown
G#m
Tell Desdemona that I'm ready to leave
           C#
Well she's nothing much to look at and she's hard to believe

          F#                D#m
Don't go down throw your arms around
G#m
Every little psycho that you happen to see
C#
Well you meant everything to them
But you meant nothing to me

F#    D#m   G#m   C#
Outros vídeos desta música
    677 exibições
      • ½ Tom
      • A
      • Bb
      • B
      • C
      • Db
      • D
      • Eb
      • E
      • F
      • F#
      • G
      • Ab
    • Adicionar à lista

    Afinação da cifra

    Afinador online

      0 comentários

      Ver todos os comentários

      Conseguiu tocar?

      0Tocaram0Ainda não

      Grave um vídeo tocando Lupe Brown e nos envie!

      Toque também

      1. Imagem do artista Maxïmo ParkApply Some Pressure Maxïmo Park
      2. Imagem do artista Dirty Pretty ThingsBang Bang You're Dead Dirty Pretty Things
      3. Imagem do artista Little Man TateWhat What You Got Little Man Tate
      4. Imagem do artista The Pigeon DetectivesIm Not Sorry The Pigeon Detectives

      Entre para o Cifra Club PRO

      Tenha acesso a benefícios exclusivos no App e no Site

      • Chega de anúncios

      • Badges exclusivas

      • Mais recursos no app do Afinador

      • Atendimento Prioritário

      • Aumente seu limite de lista

      • Ajude a produzir mais conteúdo

      Cifra Club Pro

      Aproveite o Cifra Club com benefícios exclusivos e sem anúncios
      Cifra Club Pro
      Aproveite o Cifra Club com benefícios exclusivos e sem anúncios
      OK