Cifra Club

Aprenda

Get Free

The Hives

Cifra: Principal (violão e guitarra)
Tom: C
Intro Heavy Distortion
----------------
----------------
----------------
----------------Play 3 times
-5-55-5~5~5^-3--
----------------

----------------
----------------
-5555-----------
-5555--5555-----
-3333--5555-----
-------3333-----

Chorus
-------------------------
-------------------------
-------------------------
-5/7-5/7-5/7-------------
-3/5-3/5-3/5--555-66-33--
--------------333-44-11--

Verses
----------------
----------------
----------------
----------------
-5-55-5~5~5^-3--
----------------Play three times but 
play the first two muted

--------------
--------------
-5555---------
-5555-5555----
-3333-5555----
------3333----

Fill 1
-----------
-----------
---5-7-5---
-----------
-5^--------play three times
-----------

Fill 2
---------
---------
-7^~5----
------7--
-------8-
---------play once

Bridge
---------------------
---------------------
---------------------
-77-556677-----------
-55--------77-557788-play twice
-----------55--------

-----------------
-----------------
-----------------
-8-777777777-----
-8-777777777-----
-6-555555555-----

Colaboração e revisão:
  • Élison Duarte
579 exibições
    • ½ Tom
    • A
    • Bb
    • B
    • C
    • Db
    • D
    • Eb
    • E
    • F
    • F#
    • G
    • Ab
  • Adicionar à lista

    0 comentários

    Mostrar mais comentários

    Conseguiu tocar?

    0 Tocaram 0 Ainda não

    Grave um vídeo tocando Get Free e mande pra gente!

    00:00 / 00:00
    outros vídeos desta música
    repetir qualidade Automático
    Outros vídeos desta música
    00:00 / 00:00
    Automático
    OK