Cifra Club

Aprenda

Supply And Demand

The Hives

Cifra: Principal (violão e guitarra)
Tom: G
( RIFF   1 )

E|----------------------------------3-------------------------------3--|
A|--3-----1--3----1--3----1--3--5------1--3------1--3------1--3--5-----|
D|--5-----3--5----3--5----3--5--5------3--5------3--5------3--5--5-----|
G|--5-----3--5----3--5----3--5---------3--5------3--5------3--5--------|
B|---------------------------------------------------------------------|
E|---------------------------------------------------------------------|

( RIFF   2 )

E|--0--0---0--0--0--0---5--5---0--0--0--0--5--5---0--0--0--0--5--5----|
A|--2--2---2--2--2--2---7--7---2--2--2--2--7--7---2--2--2--2--7--7----|
D|--2--2---2--2--2--2---7--7---2--2--2--2--7--7---2--2--2--2--7--7----|
G|--------------------------------------------------------------------|
B|--------------------------------------------------------------------|
E|--------------------------------------------------------------------|

( RIFF   3 )

E|-------5----5-----3----3------8----8-----7---7-----0---0------|
A|-------7----7-----5----5-----10---10-----9---9-----2---2------|
D|-------7----7-----5----5-----10---10-----9---9-----2---2------|
G|--------------------------------------------------------------|
B|--------------------------------------------------------------|
E|--------------------------------------------------------------|




VERSO => RIFF 1
REFRÃO => RIFF 2 ; RIFF 3

EU ACHO Q É ASSIM GALERA... QUEM CONSEGUIR TIRAR O SOLINHO DO REFRÃO,
POR FAVOR CONTRIBUA... EU TOCANDO ATÉ FAÇO, MAS NÃO TENHO CERTEZA...
POR ISSO NÃO COLOCO AÍ NA CIFRA... VALEU GALERA.... ABRAÇO PRO PESSOAL
DO SÃO BENTO E DA CULTURA INGLESA...
Composição de Randy Fitzsimmons
Colaboração e revisão:
  • The Greets
3.050 exibições
    • ½ Tom
    • A
    • Bb
    • B
    • C
    • Db
    • D
    • Eb
    • E
    • F
    • F#
    • G
    • Ab
  • Adicionar à lista

    0 comentários

    Mostrar mais comentários

    Conseguiu tocar?

    0 Tocaram 0 Ainda não

    Grave um vídeo tocando Supply And Demand e mande pra gente!

    00:00 / 00:00
    outros vídeos desta música
    repetir qualidade Automático
    Outros vídeos desta música
    00:00 / 00:00
    Automático
    OK