Cifra Club

Mr. Brightside

The Killers

Tab de baixo: Principal
exibições 15.309
Introdução ( só Guitarra )

Primeira parte 

Coming out of my cage...

Parte 01 de  05

G|----------------------------------------------|
D|-11-11-11-11--11-11-11-11--10-10-10-10--------|
A|----------------------------------------------|
E|----------------------------------------------|

G|----------------------------------------------|
D|-10-10-10-10--4-4-4-4--4-4-4-4--4-4-4-4-------|
A|----------------------------------------------|
E|----------------------------------------------|

G|----------------------------------------------|
D|-4-4-4-4--------------------------------------|
A|----------------------------------------------|
E|----------------------------------------------|

Parte 02 de 05 

G|----------------------------------------------|
D|----------------------------------------------|
A|-4-4-4-4--4-4-4-4--3-3-3-3--3-3-3-3-----------|
E|----------------------------------------------|

G|----------------------------------------------|
D|----------------------------------------------|
A|----------------------------------------------|
E|-2-2-2-2--2-2-2-2--2-2-2-2--2-2-2-2-----------|

Parte 03 de 05

G|----------------------------------------------|
D|----------------------------------------------|
A|-4-4-4-4--4-4-4-4--3-3-3-3--3-3-3-3-----------|
E|----------------------------------------------|

G|----------------------------------------------|
D|-2/4-4-4-4--4-4-4-4--4-4-4-4--4-4-4-4---------|
A|----------------------------------------------|
E|----------------------------------------------|

Parte 04 de 05

G|----------------------------------------------|
D|-----3-1-------1/3-1--------------------------|
A|-1-1-----4-----------4-----4/6-4-3-----1-3-4--|
E|-----------4-4---------2-2---------2-2--------|

G|----------------------------------------------|
D|-----3-1-------1/3-1--------------------------|
A|-1-1-----4-----------4------------------------|
E|-----------4-4--------------------------------|

Parte 05 de 05

G|----------------------------------------------|
D|----------------------------------------------|
A|----------------------------------------------|
E|-1h2-2-2-2--2-2-2-2--1h2-2-2-2--2-2-2-2-------|

G|----------------------------------------------|
D|------------------------2/4-4-4-4--4-4-4-4----|
A|----------------------------------------------|
E|-1h2-2-2-2--1h2-2-2-2-------------------------|

Refrão 01

Jealousy turning saints into the sea...

Parte 01 de 03 (  Tocar 2x )

G|----------------------------------------------|
D|-------------------4-4-4-4--4-4-4-4-----------|
A|-4-4-4-4--4-4-4-4-----------------------------|
E|----------------------------------------------|

G|----------------------------------------------|
D|----------------------------------------------|
A|-1-1-1-1--1-1-1-1-----------------------------|
E|-------------------4-4-4-4--4-4-4-4-----------|

Parte 02 de 03

G|----------------------------------------------|
D|----------------------------------------------|
A|-4-4-4-4--4-4-4-4-----------------------------|
E|-------------------2-2-2-2--2-2-2-2-----------|

G|----------------------------------------------|
D|----------------------------------------------|
A|----------------------------------------------|
E|-6-6-6-6--6-6-6-6--4-4-4-4--4-4-4-4-----------|

Parte 03 de 03

G|----------------------------------------------|
D|----------------------------------------------|
A|-4-4-4-4--4-4-4-4--4/9-9-9-9--9-9-9-9---------|
E|----------------------------------------------|

G|----------------------------------------------|
D|----------------------------------------------|
A|-9/13-13-13-13--13-13-13-13--11-11-11-11------|
E|----------------------------------------------|

G|----------------------------------------------|
D|----------------------------------------------|
A|-11-11-11-11----------------------------------|
E|----------------------------------------------|

Introdução 2

Parte 01 de 01 ( Tocar 2x )

G|----------------------------------------------|
D|-------------------4-4-4-4--4-4-4-4-----------|
A|-4-4-4-4--4-4-4-4-----------------------------|
E|----------------------------------------------|

G|----------------------------------------------|
D|----------------------------------------------|
A|----------------------------------------------|
E|-6-6-6-6--6-6-6-6--4-4-4-4--4-4-4-4-----------|

Segunda parte

I'm coming out of my cage...

Parte 01 de  05

G|----------------------------------------------|
D|----------------------------------------------|
A|-4-4-4-4--4-4-4-4--3-3-3-3--3-3-3-3-----------|
E|----------------------------------------------|

G|----------------------------------------------|
D|----------------------------------------------|
A|----------------------------------------------|
E|-2-2-2-2--2-2-2-2--2-2-2-2--2-2-2-2-----------|

G|----------------------------------------------|
D|----------------------------------------------|
A|-4-4-4-4--4-4-4-4--3-3-3-3--3-3-3-3-----9\----|
E|-------------------------------------2--------|

Parte 02 de 05

G|----------------------------------------------|
D|----------------------------------------------|
A|-4-4-4-4--4-4-4-4--3-3-3-3--3-3-3-3-----------|
E|----------------------------------------------|

G|----------------------------------------------|
D|----------------------------------------------|
A|----------------------------------------------|
E|-2-2-2-2--2-2-2-2--2-2-2-2--2-2-2-2-----------|

Parte 03 de 05

G|----------------------------------------------|
D|----------------------------------------------|
A|-4-4-4-4--4-4-4-4--3-3-3-3--3-3-3-3-----------|
E|----------------------------------------------|

G|----------------------------------------------|
D|-2/4-4-4-4--4-4-4-4--4-4-4-4--4-4-4-4---------|
A|----------------------------------------------|
E|----------------------------------------------|

Parte 04 de 05

G|----------------------------------------------|
D|-----3-1-------1/3-1--------------------------|
A|-1-1-----4-----------4-----4/6-4-3-----1-3-4--|
E|-----------4-4---------2-2---------2-2--------|

G|----------------------------------------------|
D|-----3-1-------1/3-1--------------------------|
A|-1-1-----4-----------4------------------------|
E|-----------4-4--------------------------------|

Parte 05 de 05

G|----------------------------------------------|
D|----------------------------------------------|
A|----------------------------------------------|
E|-1h2-2-2-2--2-2-2-2--1h2-2-2-2--2-2-2-2-------|

G|----------------------------------------------|
D|------------------------2/4-4-4-4--4-4-4-4----|
A|----------------------------------------------|
E|-1h2-2-2-2--1h2-2-2-2-------------------------|

Refrão 02

Jealousy turning saints into the sea...

Parte 01 de 03 (  Tocar 2x )

G|----------------------------------------------|
D|-------------------4-4-4-4--4-4-4-4-----------|
A|-4-4-4-4--4-4-4-4-----------------------------|
E|----------------------------------------------|

G|----------------------------------------------|
D|----------------------------------------------|
A|-1-1-1-1--1-1-1-1-----------------------------|
E|-------------------4-4-4-4--4-4-4-4-----------|

Parte 02 de 03

G|----------------------------------------------|
D|----------------------------------------------|
A|-4-4-4-4--4-4-4-4-----------------------------|
E|-------------------2-2-2-2--2-2-2-2-----------|

G|----------------------------------------------|
D|----------------------------------------------|
A|----------------------------------------------|
E|-6-6-6-6--6-6-6-6--4-4-4-4--4-4-4-4-----------|

Parte 03 de 03

G|----------------------------------------------|
D|----------------------------------------------|
A|-4-4-4-4--4-4-4-4--4/9-9-9-9--9-9-9-9---------|
E|----------------------------------------------|

G|----------------------------------------------|
D|----------------------------------------------|
A|-9/13-13-13-13--13-13-13-13--11-11-11-11------|
E|----------------------------------------------|

G|----------------------------------------------|
D|----------------------------------------------|
A|-11-11-11-11----------------------------------|
E|----------------------------------------------|

Terceira parte ( interlúdio )

Parte 01 de 02

G|-10--6--6--5--6/-10--6------------------------|
D|-11--4--8--6-----11--4------------------------|
A|----------------------------------------------|
E|----------------------------------------------|

Parte 02 de 02

G|----------------------------------------------|
D|-8-8-8-8--8-8-8-8--6-6-6-6--6-6-6-6-----------|
A|----------------------------------------------|
E|----------------------------------------------|

Quarta parte ( Final )

I never, I never...

Parte 01 de 03 ( tocar 2x )

G|----------------------------------------------|
D|-------------------4-4-4-4--4-4-4-4-----------|
A|-4-4-4-4--4-4-4-4-----------------------------|
E|----------------------------------------------|

G|----------------------------------------------|
D|----------------------------------------------|
A|----------------------------------------------|
E|-6-6-6-6--6-6-6-6--4-4-4-4--4-4-4-4-----------|

Parte 02 de 03

G|----------------------------------------------|
D|----------------------------------------------|
A|-4-4-4-4--4-4-4-4-----------------------------|
E|-------------------2-2-2-2--2-2-2-2-----------|

G|----------------------------------------------|
D|----------------------------------------------|
A|----------------------------------------------|
E|-6-6-6-6--6-6-6-6--4-4-4-4--4-4-4-4-----------|

Parte 03 de 03

G|----------------------------------------------|
D|----------------------------------------------|
A|-4-4-4-4--4-4-4-4--4/9-9-9-9--9-9-9-9---------|
E|----------------------------------------------|

G|----------------------------------------------|
D|----------------------------------------------|
A|-9/13-13-13-13--13-13-13-13--11---------------|
E|--------------------------------11-4----------|
Composição: Brandon Flowers / David Keuning Colaboração e revisão:
  • Reginaldo Costa
  • Alex Barbarioli
  • Jorge Antonio

0 comentários

mostrar mais comentários

Conseguiu tocar?

2 tocaram 0 ainda não

Grave um vídeo tocando Mr. Brightside e mande pra gente!

00:00 / 00:00
outros vídeos desta música
repetir qualidade Automático
Outros vídeos desta música
00:00 / 00:00
Automático
Capítulos
  • Tocando a música
  • Apresentação / Equipamentos
  • Tab - Primeira Parte - Parte 1 de 5
  • Tab - Primeira Parte - Parte 2 de 5
  • Tab - Primeira Parte - Parte 3 de 5
  • Tab - Primeira Parte - Parte 4 de 5
  • Tab - Primeira Parte - Parte 5 de 5
  • Refrão 1 - Parte 1 de 3
  • Refrão 1 - Parte 2 de 3
  • Refrão 1 - Parte 3 de 3
  • Tab - Introdução 2
  • Tab - Segunda Parte - Parte 1 de 5
  • Tab - Terceira Parte - Parte 1 de 2
  • Tab - Terceira Parte - Parte 2 de 2
  • Tab - Quarta Parte - Parte 1 de 3
  • Tab - Quarta Parte - Parte 2 de 3
  • Tab - Quarta Parte - Parte 3 de 3
  • Encerramento
OK