Cifra Club

Somebody Told Me

The Killers

Cifra: Principal (violão e guitarra)
Tom: D
Introdução: 

E|-10-10-10-10-10-10-10-10-12-12-12-12-12-12-12-12-----|
B|--0--0--0--0--0--0--0--0--0--0--0--0--0--0--0--0-----|
G|--7--7--7--7--7--7--7--7--9--9--9--9--9--9--9--9-----|
D|-----------------------------------------------------|
A|-----------------------------------------------------|
E|-----------------------------------------------------|

E|-14-14-14-14-14-14-14-14-15-15-15-15-15-15-15-15-----|
B|--0--0--0--0--0--0--0--0--0--0--0--0--0--0--0--0-----|
G|-11-11-11-11-11-11-11-11-12-12-12-12-12-12-12-12-----|
D|-----------------------------------------------------|
A|-----------------------------------------------------|
E|-----------------------------------------------------|

E|-14-14-14-14-15-15-15-15-17-17-17-17-15-15-15-15-----|
B|--0--0--0--0--0--0--0--0--0--0--0--0--0--0--0--0-----|
G|-11-11-11-11-12-12-12-12-14-14-14-14-12-12-12-12-----|
D|-----------------------------------------------------|
A|-----------------------------------------------------|
E|-----------------------------------------------------|

E|-14-14-14-14-15-15-15-15-14-14-14-14-14-14-14-14-----|
B|--0--0--0--0--0--0--0--0--0--0--0--0--0--0--0--0-----|
G|-11-11-11-11-12-12-12-12-11-11-11-11-11-11-11-11-----|
D|-----------------------------------------------------|
A|-----------------------------------------------------|
E|-----------------------------------------------------|


Primeira Parte:

  (Riff 1)
Breaking my back 
Just to know your name
Seventeen tracks 
                           (Riff 2)
And I've had it with this game

(Riff 1)

E|-x-x-x-x-x-x-x-x-------------------------------------|
B|-x-x-x-x-x-x-x-x-------------------------------------|
G|-x-x-x-x-x-x-x-x-------------------------------------|
D|-x-x-x-x-x-x-x-x-------------------------------------|
A|-----------------------------------------------------|
E|-----------------------------------------------------|

(Riff 2)

E|-14-14-14-14-15-15-15-15-17-17-17-17-15-15-15-15-----|
B|--0--0--0--0--0--0--0--0--0--0--0--0--0--0--0--0-----|
G|-11-11-11-11-12-12-12-12-14-14-14-14-12-12-12-12-----|
D|-----------------------------------------------------|
A|-----------------------------------------------------|
E|-----------------------------------------------------|

      (Riff 1)
I'm breaking my back 
Just to know your name
But heaven ain't close 
In a place like this
Anything goes 
                          (Riff 2)
But don't blink you might miss

       (Riff 1)
'Cause heaven ain't close 
In a place like this
I said heaven ain't close 
In a place like this

G
  Bring it back down
  A                   Bm
Bring it back down tonight
 G
Never thought
                       A
I'd let a rumour ruin my moonlight

   G                       A
E|-----------------------------------------------------|
B|-----------------------------------------------------|
G|-12-12-12-12-12-12-12-12-14-14-14-14-14-14-14-14-----|
D|-----------------------------------------------------|
A|-10-10-10-10-10-10-10-10-12-12-12-12-12-12-12-12-----|
E|-----------------------------------------------------|

   Bm
E|-----------------------------------------------------|
B|-----------------------------------------------------|
G|-16-16-16-16-16-16-16-16-16-16-16-16-16-16-16-16-----|
D|-----------------------------------------------------|
A|-14-14-14-14-14-14-14-14-14-14-14-14-14-14-14-14-----|
E|-----------------------------------------------------|

   G
E|-----------------------------------------------------|
B|-----------------------------------------------------|
G|-12-12-12-12-12-12-12-12-12-12-12-12-12-12-12-12-----|
D|-----------------------------------------------------|
A|-10-10-10-10-10-10-10-10-10-10-10-10-10-10-10-10-----|
E|-----------------------------------------------------|

   A
E|-----------------------------------------------------|
B|-----------------------------------------------------|
G|-14-14-14-14-14-14-14-14-14--14----------------------|
D|-----------------------------------------------------|
A|-12-12-12-12-12-12-12-12-12--12----------------------|
E|-----------------------------------------------------|


Primeiro Refrão:

          Bm
Somebody told me
           G
You had a boyfriend
                   A
Who looked like a girlfriend
               F#          Bm
That I had in February of last year
               G
It's not confidential
            A
I've got potential


Segunda Parte:

(Riff 1)
Ready? Let's roll 
On to something new
Taking it's toll 
                         (Riff 3)
And I'm leaving without you
'Cause heaven ain't close 
In a place like this
I said heaven ain't close 
In a place like this

G
  Bring it back down
  A                   Bm
Bring it back down tonight
 G
Never thought 
                       A
I'd let a rumour ruin my moonlight


Segundo Refrão:

          Bm
Somebody told me
           G
You had a boyfriend
                   A
Who looked like a girlfriend
               F#          Bm
That I had in February of last year
               G
It's not confidential
            A
I've got potential
                 F#
A rushing, a rushing around


Ponte:

E|-----------------------------------------------------|
B|-17-17-17-15-15-15-15-15-17-17-17-15-15-15-15-15-----|
G|-----------------------------------------------------|
D|-----------------------------------------------------|
A|-----------------------------------------------------|
E|-----------------------------------------------------|

E|-----------------------------------------------------|
B|-17-17-17-15-15----------17-17-17-15-15--------------|
G|----------------16-14-16----------------16-14-16-----|
D|-----------------------------------------------------|
A|-----------------------------------------------------|
E|-----------------------------------------------------|

E|-----------------------------------------------------|
B|-17-17-17-15-15-15-15-15-17-17-17-15-15-15-15-15-----|
G|-----------------------------------------------------|
D|-----------------------------------------------------|
A|-----------------------------------------------------|
E|-----------------------------------------------------|

E|-----------------------------------------------------|
B|-17-17-17-15-15----------17-17-17-15-15--------------| 
G|----------------16-14-16----------------16-14-16-----|  (4x)
D|-----------------------------------------------------|
A|-----------------------------------------------------|
E|-----------------------------------------------------|

Pace yourself for me
I said maybe, baby, please
But I just don't know now
When all I wanna do is try


Terceiro Refrão:

          Bm
Somebody told me
           G
You had a boyfriend
                   A
Who looked like a girlfriend
               F#          Bm
That I had in February of last year
               G
It's not confidential
            A
I've got potential
                 F#
A rushing, a rushing around

          Bm
Somebody told me
           G
You had a boyfriend
                   A
Who looked like a girlfriend
               F#          Bm
That I had in February of last year
               G
It's not confidential
            A
I've got potential
                 F#
A rushing, a rushing around

          Bm
Somebody told me
           G
You had a boyfriend
                   A
Who looked like a girlfriend
               F#          Bm
That I had in February of last year
               G
It's not confidential
            A
I've got potential
                 F#         Bm
A rushing, a rushing around

(Riff Final)

E|-----------------------------------------------------|
B|-----------------------------------------------------|
G|-7-7-7-7-7-7-7-7-7-7-7-7-7-7-7-7---------------------|
D|-----------------------------------------------------|
A|-5-5-5-5-5-5-5-5-5-5-5-5-5-5-5-5---------------------|
E|-----------------------------------------------------|

E|-----------------------------------------------------|
B|-----------------------------------------------------|
G|-9-9-9-9-9-9-9-9-6-6-6-6-6-6-6-6---------------------|
D|-----------------------------------------------------|
A|-7-7-7-7-7-7-7-7-4-4-4-4-4-4-4-4---------------------|
E|-----------------------------------------------------|
exibições 191.194
Acordes para:

    0 comentários

    mostrar mais comentários

    Conseguiu tocar?

    5 tocaram 1 ainda não

    Grave um vídeo tocando Somebody Told Me e mande pra gente!

    00:00 / 00:00
    outros vídeos desta música
    repetir qualidade Automático
    Outros vídeos desta música
    00:00 / 00:00
    Automático
    Capítulos
    • Tocando a música
    • Dicas Iniciais / Equipamentos
    • Tocando a Introdução e Primeira Parte
    • Introdução - Parte 1 de 2
    • Introdução - Parte 2 de 2
    • Riff 1
    • Riff 2
    • Riff 3
    • Acordes do Refrão
    • Tocando o Primeiro Refrão
    • Ritmo do Refrão
    • Tocnando Segunda Parte - Ponte
    • Ponte - Parte 1 de 2
    • Ponte - Parte 2 de 2
    • Tocando o Terceiro Refrão
    • Riff Final
    • Encerramento
    • Ficha Técnica
    OK