Cifra Club

Sarcophagi Intro

The Mars Volta

Cifra: Principal (violão e guitarra)
tom: G
Tabbed by:Arad

Tuning:Standard

e|-7-12----10----12-14-----12---10-7-----7-----7-----7---7-|
B|-0-0--0-----0-----0----0----0----0-------0-----0-----0-0-|
G|---12-12----12----14-------------9---9-----9-----9-------|
D|---------------------------------------------------------|
A|---------------------------------------------------------|
E|---------------------------------------------------------|

e|-12----10----12-14-----12---10-7-----7-----7-----7---7-|
B|-0--0-----0-----0----0----0----0-------0-----0-----0-0-|
G|-12-12----12----14-------------9---9-----9-----9-------|
D|-------------------------------------------------------|
A|-------------------------------------------------------|
E|-------------------------------------------------------|

e|-5-----3---5-7-----5-----0-----0---0-0-----0---0-|
B|-0---0---0---0---0---0-7-7-----7---7-8-----8---8-|
G|-5---5---5---7---7---7---7---7---7---7---7---7---|
D|-------------------------------------------------|
A|-------------------------------------------------|
E|-------------------------------------------------|

e|-7-----5-----5-----3-----------------------------------------------------|
B|-0---0---0-7-0---0---0-5-7-----7-----7-----7-----7/8---8-----7-----7-----|
G|-7---7---7---5---5---5---0-------0-----0-----0---0-------0---0-------0---|
D|-------------------------7---7-----7-----7-----7-7/8-8-----8-7---7-----7-|
A|-------------------------------------------------------------------------|
E|-------------------------------------------------------------------------|



| /  slide up
| \  slide down
| h  hammer-on
| p  pull-off
| ~  vibrato
| +  harmonic
| x  Mute note
===============================================================================
Compositor não encontrado.
256 exibições
    • ½ Tom
    • A
    • Bb
    • B
    • C
    • Db
    • D
    • Eb
    • E
    • F
    • F#
    • G
    • Ab
  • Adicionar à lista

    0 comentários

    Ver todos os comentários

    Conseguiu tocar?

    0 Tocaram 0 Ainda não

    Grave um vídeo tocando Sarcophagi Intro e nos envie!

    00:00 / 00:00
    Outros vídeos desta música
    Repetir Qualidade Automático
    Outros vídeos desta música
    00:00 / 00:00
    Automático

    Cifra Club Pro

    Aproveite o Cifra Club com benefícios exclusivos e sem anúncios
    Cifra Club Pro
    Aproveite o Cifra Club com benefícios exclusivos e sem anúncios
    OK