Cifra Club

Too Late

The Paper Kites

Cifra: Principal (violão e guitarra)
tom: C
[Intro]

   Dm7                        F
E|--------------------------|--------------------------|
B|--------------------------|--------------------------|
G|--------------------------|---------7/9--7p5-5h7-----|
D|--------------------------|-----------------7--------|
A|--------------------------|--------------------------|
D|--------------------------|--------------------------|

   Dm7                        F
E|--------------------------|--------------------------|
B|-------8/10------------8s10--------------------------|
G|---------------------------7-------------------------|
D|--------------------------|----------------10p9-7----|
A|--------------------------|--------------------------|
D|--------------------------|--------------------------|


[Verse]

   Dm7                                  F
Magnetic, you're pulling me in with the words you don't say
   Dm7                              F
Cinematic, this chemistry coming through
                    Dm7
You're always in my head
                       F
Branding your fire on my lips
           Dm7               F
But this still won't work, no



[Chorus]

Dm7                        F
No love you have come too late
Dm7                        F
No love you have come too late



[Solo]

          Dm7                     F
E|------|-----------------------|--------------------------|
B|------|------------------------6-5-----------------------|
G|------|----------------------5-----7-5-------------------|
D|------|-5---5/7-----------5-7-|--------5/7---------------|
A|--3/5h7---7-----5/7------7----|--------------------------|
D|------|-----------------------|--------------------------|

   Dm7                            F
E|------------------------------|--------------------------|
B|-------------------------8-8/10-10-----------------------|
G|---5---------5-5/7--5-7/9-9---|--------------------------|
D|5h7-5/7---5h7-----------------|--------------------------|
A|------------------------------|--------------------------|
D|------------------------------|--------------------------|


[Verse]

      Dm7                                      F
Such darkness, but I know your face cause I learned it as if I was blind
       Dm7                           F
In the moment,I feel like I am and I hate that I know it so well
                 Dm7
You're always in my head
                             F
Searing your thoughts in to my skin
          Dm7                F
But this still won't work, no



[Chorus]

Dm7                        F
No love you have come too late
Dm7                        F
No love you have come too late




[Solo]

      F        Am7             F
E|-8-------10----------------7b-------------------------|
B|---8-10-----8-10--8---10---|-8------------------------|
G|--|-----------------7----7-|--9\7-5-/7-5--------------|
D|--|------------------------|-------------5/7----------|
A|--|------------------------|--------------------------|
D|--|------------------------|--------------------------|

      F        Am7             F               Am7         Dm7            Dm7
E|-8-------10----------------|---------------------------|--------------------------------|
B|---8-10-----8-10--8---8-10-10--10--10--10---8--8--8--8--5--5--5-------------------------|
G|--|-----------------7----7-|-12--12--12--12--9--9--9--9|-7--7--7-5----------------------|
D|--|------------------------|---------------------------|----------7-5-5/7---------------|
A|--|------------------------|---------------------------|--------------------------------|
D|--|------------------------|---------------------------|--------------------------------|



[Chorus]

Am7     F                    G  Am7 F
No love  you have come too late
Am7     F                    G  Am7 F
No love  you have come too late



[Outro]

     F       G      Am7     F                          x2
E|-|----------------------|----------------------|
B|-|--------3----3/5-3-1--|-----1-----------1----|
G|0-2-----2----2---------0h2-0h2-2-0-0h2-0h2-2-0-|
D|-|----------------------|----------------------|
A|-|----------------------|----------------------|
D|-|----------------------|----------------------|

N.C
E|--------------------------------------------|
B|----------------0-------1-------------3-----|
G|-----0-2------0-----------------------------|
D|--------------------2-3---3-2----2-3----3-2-|
A|---3--------2-------------------------------|
D|-3--------2--------0-----------0------------|

N.C
E|-------------------------------------|
B|----------------0-------1------3-----|
G|-----0-2------0----------------2-----|
D|--------------------2-3---3-2--0-----|
A|---3--------2------------------------|
D|-3--------2--------0-----------------|
00:00 / 00:00
Outros vídeos desta música
Repetir
Outros vídeos desta música
Composição de Samuel Alexander Bentley
Colaboração e revisão:
  • Amanda Silva
651 exibições
    • ½ Tom
    • A
    • Bb
    • B
    • C
    • Db
    • D
    • Eb
    • E
    • F
    • F#
    • G
    • Ab
  • Adicionar à lista

    0 comentários

    Ver todos os comentários

    Conseguiu tocar?

    0 Tocaram 0 Ainda não

    Grave um vídeo tocando Too Late e nos envie!

    Entre para oCifra Club PRO

    Tenha acesso a benefícios exclusivos no App e no Site

    • Chega de anúncios

    • Prioridade de compra em lançamentos

    • Mais recursos no app do Afinador

    • Atendimento Prioritário

    • Descontos nos produtos Cifra Club

    • Ajude a produzir mais conteúdo

    00:00 / 00:00

    Cifra Club Pro

    Aproveite o Cifra Club com benefícios exclusivos e sem anúncios
    Cifra Club Pro
    Aproveite o Cifra Club com benefícios exclusivos e sem anúncios
    OK