Cifra Club

Synchronicity 2

The Police

Cifra: Principal (violão e guitarra)
tom: A
Album: Synchronicity

abbed by Jack
mail:  *
NOTE: the entire song is tabbed except the weird guitar noises 
eard in the beginning and on other parts.
Key:
 = pull off
 = palm mute
Intro (play 3x)
E|---7p5--7p5--7p5----7p5-7p5---7p5--7p5--7p5--7p5-7p5--|
B|--7p5--7p5--7p5----7p5-7p5---7p5--7p5--7p5--7p5-7p5--|
G|E|-------------------------------|----------------------|
D|E|-------------------------------|----------------------|
A|E|-------------------------------|----------------------|
E|E|-------------------------------|----------------------|
then finish with this
E|---7p5--7p5--7p5----7p5-7p5---7p5--7p5--7p5--------|
B|--7p5--7p5--7p5----7p5-7p5---7p5--7p5--7p5--------|
G|E|-------------------------------|--------------77---|
D|E|-------------------------------|----------------77-|
A|E|-------------------------------|-------------------|

E|-------------------------------|
Versão com acordes:


A          C#m7          D       D#
Another suburban family morning.

A            C#m7             D    D#
Grandmother screaming at the wall.
 
A           C#m7            D          D#
We have to shout above the din of our Rice Crispies 

A              C#m7        D   D#
We can't hear anything at all. 

A                  Bm7/11     B7/11           Bm7/11 
Mother chants her litany of boredom and frustration,
 
A                    Bm7/11       B7/11     Bm7/11
But we know all her suicides are fake. 

F/A        Dm6             F/A      Dm6
Daddy only stares into the distance
 
         F/A          Dm6              E
There's only so much more that he can take.

 
Esus4       F7          G6                    F7
Many miles away something crawls from the slime

        E             E         E
At the bottom of a dark Scottish lake. 


A          C#m7          D       D#
Another industrial ugly morning 

A                    C#m7           D   D#
The factory belches filth into the sky.
 
A           C#m7                 D            D#
He walks unhindered through the picket lines today,
 
A           C#m7            D    Dsus2
He doesn't think to wonder why. 


A                Bm7/11              B7/11            Bm7/11
The secretaries pout and preen like cheap tarts in a red light street, 

A                Bm7/11          B7/11     Bm7/11
But all he ever thinks to do is watch.
 
     F/A          Dm6                 F/A             Dm6
And every single meeting with his so-called superior 

        F/A       Dm6                 E
Is a humiliating kick in the crotch. 


Esus4       F7          G6                    F7
Many miles away something crawls to the surface 

      E E         E
Of a dark Scottish lake. 

"Yeee-ooo-ooo"

A          C#m7          D       D#
Another working day has ended.

A          C#m7          D       D# 
Only the rush hour hell to face.
 
A          C#m7          D       D#
Packed like lemmings into shiny metal boxes.
 
A           C#m7            D    Dsus2
Contestants in a suicidal race. 


 F/A        Dm6             F/A      Dm6
Daddy grips the wheel and stares alone into the distance, 

     F/A                   Dm6              E
He knows that something somewhere has to break.

    Dm7             Dm6        Dm7            Dm6 
He sees the family home now looming in the headlights,

    Dm7                 Dm6                 D-E  D-E
The pain upstairs that makes his eyeballs ache. 


Esus4       F7          G6                 F7
Many miles away there's a shadow on the door 
 
      E             E 
Of a cottage on the shore 

      E E         E   E  E  E  E E  E E  E+11 
Of a dark Scottish lake 


E|----------------------------|
B|----------------------------|
G|----------------------------|
D|---7---7---9999-7-99999-77--|
A|-----4----------------------|
E|-5--------------------------|

E|-----------------------|
B|-----------------------|
G|-6-6--7-7--8-8--7-7----|
D|-6-6--7-7--8-8--7-7----|
A|-4-4--5-5--6-6--5-5----|
E|-----------------------|

E|-------------------------------|------------------|
B|--------66----------66-----(3333-5--33333--5)---|
G|-0*0*-55--55-0*0*-44--44---(3333-5--33333--5)---|
D|-------------------------------|-----------------|
A|-------------------------------|-----------------|
E|-------------------------------|-----------------|

E|-------------------------------|-------------------|-----------|
B|-------------------------------|-------------------|----------|
G|--4--4--5-5--5---4--4--7--7----------------------------77---|
D|---2--2----2--2---2--2--5--5--6-6-6--7-7--7--6-6--6--6---77-|
A|-0--0--0-0--0--0---2--2--5--5----7-7----8--8----7--7--7-----|
E|-------------------------------|---7-7----8--8----7--7-------|

E|-------------------------------| E|-------------------------------|--
B|-------------------------------| E|-------------------------------|-
G|--4--4--5-5--5---4--4--7--7| E|-------------------------------|-----
D|---2--2----2--2---2--2--5--5--6-6--6--7-7--7--6-6--6--6-6--6---|
A|-0--0--0-0--0--0---2--2--5--5----7--7----8--8----7--7----7--7--|
E|-------------------------------|---7--7----8--8----7--7----7--7-|

E|-------------------------------| E|-------------------------------|-------
B|-------------------------------| E|-------------------------------|-------
G|-4--4--5-5--5---4--4--7--7----------------------------10-10---10-----|
D|--2--2----2--2---2--2--5--5-6-6--6--7-7--7--9-9---9--------10---10---|
0--0--0-0--0--0---2--2--5--5---7--7----8--8----10--10--------10---10-
E|-------------------------------|-7--7----8--8----10--10---------------|
Composição de Sting
Colaboração e revisão:
  • Wallace Attie
  • Anna Gabriella
11.370 exibições
    • ½ Tom
    • A
    • Bb
    • B
    • C
    • Db
    • D
    • Eb
    • E
    • F
    • F#
    • G
    • Ab
  • Adicionar à lista

    0 comentários

    Ver todos os comentários

    Conseguiu tocar?

    2 Tocaram 0 Ainda não

    Grave um vídeo tocando Synchronicity 2 e nos envie!

    00:00 / 00:00
    Outros vídeos desta música
    Repetir Qualidade Automático
    Outros vídeos desta música
    00:00 / 00:00
    Automático

    Cifra Club Pro

    Aproveite o Cifra Club com benefícios exclusivos e sem anúncios
    Cifra Club Pro
    Aproveite o Cifra Club com benefícios exclusivos e sem anúncios
    OK