Cifra Club

Aprenda

Hit Me Like a Man

The Pretty Reckless

Cifra: Principal (violão e guitarra)
tom: A (forma dos acordes no tom de Bb) Afinação: Eb Ab Db Gb Bb Eb
Intro: Em  G  A (3x)
      (Em  G  A  B)

E|-------------------------------|
B|-------------------------------|
G|-------------------------------|
D|-------------------------------|
A|-----7-5-7-5-----7-7-5/7-------|
E|-0-----------7-6-5-5-3/5-5-0---|

E|-------------------------------|
B|-------------------------------|
G|-------------------------------|
D|-------------------------------|
A|-----7-5-7-5-----7--5-4-3------|
E|-0-----------7-6-5--3-2-1-0----|

E|-------------------------------|
B|-------------------------------|
G|-------------------------------|
D|-------------------------------|
A|-----7-5-7-5-----7-7-5/7-------|
E|-0-----------7-6-5-5-3/5-5-0---|

E|-------------------------------|
B|-------------------------------|
G|-------------------------------|
D|-------------------------------|
A|-----7-5-7-5-----7-------------|
E|-0-----------7-6-5-------------|

          Em G A          Em G A
I am strong, but love is evil
           Em            G              A
There's a version of perversion that is only
                Em G A B
for the lucky people
           Em G A                   A C D
Take your time and do with me what you will
       B D B
I won't mind
           Em G A
You know I'm ill
           Em G A
You know I'm ill

E|-------------------------------|
B|-------------------------------|
G|-------------------------------|
D|-------------------------------|
A|-----7-5-7-5-----7-7-5/7-------|
E|-0-----------7-6-5-5-3/5-5-0---|

So hit me like a man
and love me like a woman
                                        A G
Bury the side, look me in the eyes, I want it

One will give you hell
E|-------------------------------|
B|-------------------------------|
G|-------------------------------|
D|-------------------------------|
A|-----7-5-7-5-----7-7-5/7-------|
E|-0-----------7-6-5-5-3/5-5-0---|

one will give you heaven
E|-------------------------------|
B|-------------------------------|
G|-------------------------------|
D|-----7-5-7-5---------3-3-5/7---|
A|--------------7-6-5--5-5-3/5---|
E|-0-----------------------------|

               B D B
Hit me like a man
      Em G A
and love me like a woman
      Em G A
Love me like a woman

        Em G A          Em G A
Love is strong, but I am evil
        A C D        Em G A
You are wrong about me
        Em G A
Take your time
        A C D
I will play with me until
        C
You can hear the children scream like they're stuck inside
        B
a dream like you

E|-------------------------------|
B|-------------------------------|
G|-------------------------------|
D|-------------------------------|
A|-----7-5-7-5-----7-7-5/7-------|
E|-0-----------7-6-5-5-3/5-5-0---|

So hit me like a man and love me like a woman
                                             A G
Bury me alive, I can see it in your eyes, you want it

E|-------------------------------|
B|-------------------------------|
G|-------------------------------|
D|-------------------------------|
A|-----7-5-7-5-----7-7-5/7-------|
E|-0-----------7-6-5-5-3/5-5-0---|
Some will give you pain,

E|-------------------------------|
B|-------------------------------|
G|-------------------------------|
D|-----7-5-7-5---------3-3-5/7---|
A|--------------7-6-5--5-5-3/5---|
E|-0-----------------------------
Some will give you pleasure

              B D B
Hit me like a man
      Em G A
and love me like a woman
      Em G A
Love me like a woman

C           G       D            Em D
Don't you run away, run away from me
C         G          D B
I will run away from you
C           G       D            Em D
Don't you run away, run away from me
C         G          B
I will run away from you

Em
Hit me like a man, love me like a woman
Found the Devil deep inside, can't you see I'm what I wanted

some will give you hell
E|-------------------------------|
B|-------------------------------|
G|-------------------------------|
D|-------------------------------|
A|-----7-5-7-5-----7-7-5/7-------|
E|-0-----------7-6-5-5-3/5-5-0---|

some will give you heaven
E|-------------------------------|
B|-------------------------------|
G|-------------------------------|
D|-----7-5-7-5---------3-3-5/7---|
A|--------------7-6-5--5-5-3/5---|
E|-0-----------------------------

               B D B
Hit me like a man
      Em G A
and love me like a woman
      Em G A
Love me like a woman
Love me like a woman
Love me like a woman

     Em  G  A
E|-------------------------------|
B|-------------------------------|
G|-------------------------------|  (2X)
D|-------------------------------|
A|-----7-5-7-5-------------------|
E|-0-----------7-6---------------|

E|-------------------------------|
B|-------------------------------|
G|-------------------------------|
D|-------------------------------|
A|-----7-5-7-5-----7-------------|
E|-0-----------7-6-5-------------|
Composição de Ben Phillips / Kato Khandwala / Taylor Momsen
Colaboração e revisão:
  • Levy Xavier
  • Joyce
  • Bia Castilho
21.395 exibições
    • ½ Tom
    • A
    • Bb
    • B
    • C
    • Db
    • D
    • Eb
    • E
    • F
    • F#
    • G
    • Ab
  • Adicionar à lista

    0 comentários

    Ver todos os comentários

    Conseguiu tocar?

    24 Tocaram 1 Ainda não

    Grave um vídeo tocando Hit Me Like a Man e nos envie!

    00:00 / 00:00
    Outros vídeos desta música
    Repetir Qualidade Automático
    Outros vídeos desta música
    00:00 / 00:00
    Automático

    Cifra Club Pro

    Aproveite o Cifra Club com benefícios exclusivos e sem anúncios
    Cifra Club Pro
    Aproveite o Cifra Club com benefícios exclusivos e sem anúncios
    OK