Cifra Club

Aprenda

Make Me Wanna Die

The Pretty Reckless

Cifra: Principal (violão e guitarra)
tom: A
Afinação: Eb Bb Gb Db Ab Eb

Intro:

    F#5

E|--------------------------------------------------------|
B|--------------------------------------------------------|
G|--------------------------------------------------------|
D|--------------------------------------------------------|
A|-4-4-x---4-------4-------4-------4-------4--------------|
E|-2-2-x-----2-2-2---2-2-2---2-2-2---2-2-2---2-2-2-0------|
         pm. . . . . . . . . . . . . . . . . . . . 
   ↓ ↑ ↓   ↑ ↓ ↑ ↓ ↑ ↓ ↑ ↓ ↑ ↓ ↑ ↓ ↑ ↓ ↑ ↓ ↑ ↓ ↑ ↓
           
    A5        B5

E|----------------------------------------|
B|----------------------------------------|
G|-2-2-2-2---4-4-4------------------------|
D|-2-2-2-2---4-4-4------------------------|
A|-0-0-0-0---2-2-2------------------------|
E|-----------------0----------------------|
   ↓ ↑ ↓ ↑   ↓ ↑ ↓ ↑ 

Frases:

    F#5             A5              E5              E5/D#          D5

E|-----------------------------------------------------------------------------------------|
B|-----------------------------------------------------------------------------------------|
G|-------------------------------------9-x-x-x-x-------9-x-x-x-x------7-x-x-x-x------------|
D|-----4-x-x-x-x-------7-x-x-x-x---------x-x-x-x---------x-x-x-x--------x-x-x-x------------|
A|-------x-x-x-x---------x-x-x-x---7-x---x-x-x-x---6-x---x-x-x-x--5-x---x-x-x-x------------|
E|-2-x---x-x-x-x---5-x---x-x-x-x-----------------------------------------------------------|
   ↓ ↓ ↑ ↓ ↑ ↓ ↑   ↓ ↓ ↑ ↓ ↑ ↓ ↑   ↓ ↓ ↑ ↓ ↑ ↓ ↑   ↓ ↓ ↑ ↓ ↑ ↓ ↑  ↓ ↓ ↑ ↓ ↑ ↓ ↑

    D5/C#

E|------------------------------------------------------|
B|------------------------------------------------------|
G|-----7-x-x-x-x----------------------------------------|
D|-------x-x-x-x----------------------------------------|
A|-4-x---x-x-x-x----------------------------------------|
E|------------------------------------------------------|
   ↓ ↓ ↑ ↓ ↑ ↓ ↑

Irá tocar a frase 2 vezes no fim da primeira vez voce toque a riff:

    C#5     B5      A5      B5

E|------------------------------------------------------|
B|------------------------------------------------------|
G|------------------------------------------------------|
D|-6-6-6-6-4-4-4-4-2-2-2-2-4-4-4------------------------|
A|-4-4-4-4-2-2-2-2-0-0-0-0-2-2-2------------------------|
E|-------------------------------0----------------------|
   ↓ ↑ ↓ ↑ ↓ ↑ ↓ ↑ ↓ ↑ ↓ ↑ ↓ ↑ ↓ ↑ 

Ao fim da segunda vez toque esta riff e depois o pré-refrão:

    C#5              C#11/F

E|------------------------------------------------------|
B|------------------------------------------------------|
G|-----------------6-6-6-6-6-6-6-6----------------------|
D|-6-6-6-6-6-6-6-6-6-6-6-6-6-6-6-6----------------------|
A|-4-4-4-4-4-4-4-4-8-8-8-8-8-8-8-8----------------------|
E|------------------------------------------------------|
   ↓ ↑ ↓ ↑ ↓ ↑ ↓ ↑ ↓ ↑ ↓ ↑ ↓ ↑ ↓ ↑

Pré-Refrão:

    D5      C#5       F#5  G#5  A#5  B5   D5      C#5   C#11/F

E|-----------------------------------------------------------------|
B|-----------------------------------------------------------------|
G|-----------------------------------------------------6~~---------|
D|-7-7-7-7-6-6-6-6-----------------------7-7-7-7-6~----6~~---------|
A|-5-5-5-5-4-4-4-4---4-4--6-6--7-7--9-9--5-5-5-5-4~-4--8~~---------|
E|-------------------2-2--4-4--5-5--7-7----------------------------|
 pm. . . . . . . .   . .  . .  . .  . .  . . . . 
  
Refrão:

    F#5                        A5

E|-------------------------------------------------------------------------------|
B|-------------------------------------------------------------------------------|
G|-------------------------------------------------------------------------------|
D|--4-------------------------7------------------------4-------------------------|
A|--4-------------------------7------------------------2-------------------------|
E|--2-------------------------5--------------------------------------------------|
    ↓ ↓ ↓ ↑ ↓ ↑ ↓ ↓ ↓ ↑ ↓ ↑   ↓ ↓ ↓ ↑ ↓ ↑ ↓ ↓ ↓ ↑ ↓ ↑  ↓ ↓ ↓ ↑ ↓ ↑ ↓ ↓ ↓ ↑ ↓ ↑

     B5

E|------------------------------------------------------|
B|------------------------------------------------------|
G|------------------------------------------------------|
D|--4/6-6-6-6-6-6-6--6-6-x-x-6-6-x-x--------------------|
A|--2/4-4-4-4-4-4-4--4-4-x-x-4-4-x-x--------------------|
E|------------------------------------------------------|
    ↓   ↓ ↑ ↓ ↑ ↓ ↑  ↓ ↑ ↓ ↑ ↓ ↑ ↓ ↑

( D  E  F#m E )


E|------------------------------------------------------|
B|------------------------------------------------------|
G|------------------------------------------------------|
D|-4-------------------6-4-0----------------------------|
A|-2-------------------4-2-0-6\-------------------------|
E|---------------------------4\-------------------------|
   ↓ ↓ ↑ ↓ ↑ ↓ ↓ ↑ ↓ ↑

(Volta na intro e segunda parte com vairações)

F#m          D           A9
   I would die for you, my love
   E
My love
F#m           D          A9
   I would lie for you, my love
   E
My love (Make me wanna die)
F#m            D            A9
   And I would steal for you, my love
   E
My love (Make me wanna die)
F#m           D           B5
   And I would die for you, my love
      C#5
 My love    >>>>>  (D  E  F#m E) 4x

E|------------------------------------------------------|
B|------------------------------------------------------|
G|------------------------------------------------------|
D|-4-------------------6-4-0----------------------------|
A|-2-------------------4-2-0-6\-------------------------|
E|---------------------------4\-------------------------|
   ↓ ↓ ↑ ↓ ↑ ↓ ↓ ↑ ↓ ↑

(Intro)
Composição de Ben Phillips / Kato Khandwala / Taylor Momsen
122.679 exibições
    • ½ Tom
    • A
    • Bb
    • B
    • C
    • Db
    • D
    • Eb
    • E
    • F
    • F#
    • G
    • Ab
  • Adicionar à lista

    0 comentários

    Ver todos os comentários

    Conseguiu tocar?

    43 Tocaram 1 Ainda não

    Grave um vídeo tocando Make Me Wanna Die e nos envie!

    00:00 / 00:00
    Outros vídeos desta música
    Repetir Qualidade Automático
    Outros vídeos desta música
    00:00 / 00:00
    Automático

    Cifra Club Pro

    Aproveite o Cifra Club com benefícios exclusivos e sem anúncios
    Cifra Club Pro
    Aproveite o Cifra Club com benefícios exclusivos e sem anúncios
    OK