Cifra Club

In the Shadows

The Rasmus

Cifra: Principal (violão e guitarra)
exibições 60.653
Tom: A
riff 1
E|-------------------------------------------------
B|-------------------------------------------------
G|-------------------------------------------------
D|-------------------------------------------------
A|-5-5-5-454-------------0-2-4-5-454---------------
E|-----------5-2-2-2-00-2------------5--22-44-5----

riff2
E|-------------------------------------------------
B|-------------------------------------------------
G|-7-7-7-676--------------2-4-6-7-676--------------
D|-7-7-7-676-7-4-4-4-22-4-2-4-6-7-676-7--44-66-7---
A|-5-5-5-454-7-4-4-4-22-4-0-2-4-5-454-7--44-66-7---
E|-----------5-2-2-2-00-2-------------5--22-44-5---

riff3
E|--------------------------------------------------
B|--------------------------------------------------
G|-7-7-7-676--------------2-4-6-7-676---------------
D|-7-7-7-676-7-4-4-4-22-4-2-4-6-7-676-7-4-6-7--676-2
A|-5-5-5-454-7-4-4-4-22-4-0-2-4-5-454-7-4-6-7--676-2
E|-----------5-2-2-2-00-2-------------5-2-4-5--454-0

riff 4
E|-------------------------------------------------
B|-------------------------------------------------
G|-7-7-7-676--------------2-4-6-7-676--------------
D|-7-7-7-676-7-4-4-4-22-4-2-4-6-7-676-7--4-4-4-44-4
A|-5-5-5-454-7-4-4-4-22-4-0-2-4-5-454-7--4-4-4-44-4
E|-----------5-2-2-2-00-2-------------5--2-2-2-22-2

riff 5
E|--------------------------------------------------
B|--------------------------------------------------
G|-7-7-7-676--------------2-4-6-7-676---------------
D|-7-7-7-676-7-4-4-4-22-4-2-4-6-7-676-7-4-6-7--679-6
A|-5-5-5-454-7-4-4-4-22-4-0-2-4-5-454-7-4-6-7--679-6
E|-----------5-2-2-2-00-2-------------5-2-4-5--457-4

riff 1

riff 3 / riff 4

D F# Bm F# 4x - ABAFADO
(F# Fm E) - SOLTO

D F# Bm F# 2x - SOLTO

riff3 / riff 2

D F# Bm F# 4x - ABAFADO
(F# Fm E) - SOLTO

D F# Bm F# 2x - SOLTO
(F# G# A) - SOLTO

D Bm 2x - ABAFADO
(F# Fm E)- SOLTO

D F# Bm F# 4x - SOLTO

riff 5 / riff 4

Letra

No sleep
No sleep until I'm done with finding the answer
Won't stop
Won't stop before I find the cure for this cancer

Sometimes
I feel like going down, 
I'm so disconnected

Somehow
I know that I am 
haunted to be wanted

I've been watching, 
I've been waiting
In the shadows 
for my time
I've been searching, 
I've been living
For tomorrows 
all my life

They say that I must learn to kill before I can feel safe
But I, I'd rather kill myself than turn into their slave

Sometimes I feel that I should go and play with the thunder
Somehow I just don't wanna stay and wait for a wonder

I've been watching, I've been waiting
In the shadows for my time
I've been searching, I've been living
For tomorrows all my life

Lately, I've been walking, walking in circles
Watching, waiting for something
Feel me, touch me, heal me
Come take me higher

I've been watching, I've been waiting
In the shadows for my time
I've been searching, I've been living
For tomorrows all my life

I've been watching,
I've been waiting,
I've been searching,
I've been living,
for tomorrows....

In the shadows....

In the shadows.....

I've been waiting.............
Acordes para:
    Composição: The Rasmus Colaboração e revisão:
    • raphael salles

    0 comentários

    mostrar mais comentários

    Conseguiu tocar?

    1 tocaram 0 ainda não

    Grave um vídeo tocando In the Shadows e mande pra gente!

    00:00 / 00:00
    outros vídeos desta música
    repetir qualidade Automático
    Outros vídeos desta música
    00:00 / 00:00
    Automático
    OK