Cifra Club

Aprenda

Bitch

The Rolling Stones

Cifra: Principal (violão e guitarra)
Tom: G
Guitarra 1 - Mick Taylor
Guitarra 2 - Keith Richards

Riff Principal

E|-----|-------------------------------------------------------|
B|-----|----------------7---5---------------7---5--55----------|
G|-----|----------------7---5---------------7---5--55----------|
D|---5-|7-7-5-7-7-5-7-5-7---5-------5-7-7-5-7---5--55----------|
A|-7---|------------------0-----5-7-----------0---0--7---/5----|
E|-----|-----------------------------------------------5\---/0-|

Guitarra 2, solo 1

E|---------------------------8h5------------8^(10)5-------------|
B|------------------------------------------------------5-------|
G|-------------------------------------------------7^(9)--7-5---|
D|------------------------------------------------------------7-|
A|-----0-0-0-0-0-0-0-0-0-0-0------------------------------------|
E|--------------------------------------------------------------|

E|---------------------------8h5----------------------5---------|
B|--------------------------------------------------------------|
G|--------------------------------------------------7^--7^-5^---|
D|-----------------------------------------------------------7--|
A|-----0-0-0-0-0-0-0-0-0-0-0------------------------------------|
E|--------------------------------------------------------------|

Verso 1

E|-----|-------------------------------------------------------|
B|-----|----------------7---5---------------7---5--55----------|
G|-----|----------------7---5---------------7---5--55----------|
D|---5-|7-7-5-7-7-5-7-5-7---5-------5-7-7-5-7---5--55----------|
A|-7---|------------------0-----5-7-----------0---0--7---/5----|
E|-----|-----------------------------------------------5\---/0-|

E|-----|--------------------------------------------------------------|
B|-----|--------------------------------------------------------------|
G|-----|--------------------------------------------------------------|
D|-2-2-|2-2---2-2-2-2-2-2-2-2-2-2-2-2-2-2-2-2-2-2-2-2-2-5/7-5---------|
A|-0-0-|0-0---0-0-0-0-0-0-0-0-0-0-0-0-0-0-0-0-0-0-0-0-0-------7-0-2-2-|
E|-----|----3-----------------------------------------------------0-0-|

Fim do verso 1

E|--------------------------------------------------------|
B|-----------------7---5---------------7---5--55----------|
G|-----------------7---5---------------7---5--55----------|
D|-7-7-5-7-7-5-7-5-7---5-------5-7-7-5-7---5--55----------|
A|-------------------0-----5-7-----------0---0--7---/5----|
E|------------------------------------------------5\---/0-|
-|                                                        |
E|-----------------------------------------------------------5-5-|
B|-----------------------------------------------------------5-5-|
G|---------------------------------------------------------------|
D|-2-2---2-2-2-2-2-2-2-2-2-2-2-2-2-2-2-2-2-2-2-2-2-5/7-5---------|
A|-0-0---0-0-0-0-0-0-0-0-0-0-0-0-0-0-0-0-0-0-0-0-0-------7-0-----|
E|-----3----------------------------------------------------0----|

Ponte

E|--------------------------------------------------------|
B|--------------------------------------------------------|
G|--------------------------------------------------------|
D|-7----7-7--7--7--7-9--7---------------------------------|
A|-5----5-5--5--5--5-5--5---5-5-5-5-5-5--7--7-7-7-7-7-7-7-|
E|------------------------0-3-3-3-3-3-3--5--5-5-5-5-5-5-5-|

E|-------------------------------------------------------------|
B|-------------------------------------------------------------|
G|-----------------------------------4-4--4-4------------------|
D|---7-7-7-7-7-7-7-7-7-7-7-7-7-7-7-7-4-4--4-4-2--2---2---------|
A|---5-5-5-5-5-5-5-5-5-5-5-5-5-5-5-5-2-2--2-2-2--2-2-2-2-2-2-2-|
E|-0------------------------------------------0--0-0-0-0-0-0-0-|

Guitarra 2, solo 2
E|--------------------------------8----8--8--8--8-------------------------|
B|--------------3p0------8-10--10---10-----10-10-10------6-7-7-6---7------|
G|-7~--7~--7~-7-----7-------------------------------5------------7---7-7~-|
D|----------------------------------------------------7-------------------|
A|--------------------7---------------------------------------------------|
E|------------------------------------------------------------------------|

E|-------------------15--------15--------|
B|-15p12------15^(17)--15^(17)---15^(17)-|
G|---------------------------------------|
D|---------------------------------------|
A|---------------------------------------|
E|---------------------------------------|

Verso 2

E|-----|-------------------------------------------------------|
B|-----|----------------7---5---------------7---5--55----------|
G|-----|----------------7---5---------------7---5--55----------|
D|---5-|7-7-5-7-7-5-7-5-7---5-------5-7-7-5-7---5--55----------|
A|-7---|------------------0-----5-7-----------0---0--7---/5----|
E|-----|-----------------------------------------------5\---/0-|

E|-----|--------------------------------------------------------|
B|-----|--------------------------------------------------------|
G|-----|--------------------------------------------------------|
D|-2-2-|2-2---2-2---2---2-2-2-2-2-2-2-2-2---2-2-2-5/7-5---------|
A|-0-0-|0-0---0-0---0---0-0-0-0-0-0-0-0-0---0-0-0-------7-0-2-2-|
E|-----|----3-----3---3-------------------3-----------------0-0-|

Fim do verso 2

E|-----|-------------------------------------------------------|
B|-----|----------------7---5---------------7---5--55----------|
G|-----|----------------7---5---------------7---5--55----------|
D|---5-|7-7-5-7-7-5-7-5-7---5-------5-7-7-5-7---5--55----------|
A|-7---|------------------0-----5-7-----------0---0--7---/5----|
E|-----|-----------------------------------------------5\---/0-|

E|-----|----------------------------------------------------5-5-|
B|-----|----------------------------------------------------5-5-|
G|-----|--------------------------------------------------------|
D|-2-2-|2-2---2-2---2---2-2-2-2-2-2-2-2-2---2-2-2-5/7-5---------|
A|-0-0-|0-0---0-0---0---0-0-0-0-0-0-0-0-0---0-0-0-------7-0-----|
E|-----|----3-----3---3-------------------3----------------0----|

Guitarra 2, solo 3

E|-------------------------------------------------5------------------------|
B|-------------------------------------5-----5------8-5-----5---------------|
G|-----------5^--7-5------5-------7^(9)-7^(9)-7^(9)----7^(9)-7^(9)5-7-5-----|
D|-------5-7---7-----7-7----7-7-----------------------------------------7-7-|
A|-5h6h7--------------------------------------------------------------------|
E|--------------------------------------------------------------------------|

E|----------------------5--5-----8-5----------------------------------------|
B|----------------------5--5-8-5----------5---------------------------------|
G|-5^-5-7h9-9-7-5-7-5----------------7^(9)-7^(9)7^(9)5-7-7^(9)-5------5---5-|
D|---7----------------7------------------------------------------7-7----7---|
A|--------------------------------------------------------------------------|
E|--------------------------------------------------------------------------|

E|----------------------------------------------------------------------|
B|----8-8---8-8---8-8---8-8---8-8-----------5---------------------------|
G|-7h9---7h9---7h9---7h9---7h9---9\7-5-7^(9)-7^(9)-7-5---7-5------5---5-|
D|-----------------------------------------------------7-----7-7----7---|
A|----------------------------------------------------------------------|
E|----------------------------------------------------------------------|

E|------------5-5-----5-5--5-------5-5-------5-5-------5-----5-5-----5--5-|
B|------5-----5-5-----5-5--5-7br(9)5-5-7br(9)5-5-------5-----5-5-----5--5-|
G|-7^(9)-7^(9)---7^(9)-------7br(9)----7br(9)----7br(9)-7^(9)---7^(9)-----|
D|------------------------------------------------------------------------|
A|------------------------------------------------------------------------|
E|------------------------------------------------------------------------|

E|------5-5--5----5-5-----5-5-----5-----5-5-5-5-5-5-5-----5-5-5----8-p5-5-5-|
B|------5-5--5----5-5-----5-5-----5-----5-5-5-5-5-5-5-----5-5-5----7^p5-5-5-|
G|-7^(9)------7br9---7^(9)---7^(9)-7^(9)-------------7^(9)-----7brb------7--|
D|--------------------------------------------------------------------------|
A|--------------------------------------------------------------------------|
E|--------------------------------------------------------------------------|

E|-5-8p5--8p5--8p5--8p5--8p5--8p5-----------8--8------8-10^(12)10-8-10^(12)-|
B|------5----5----5----5----5----5-/10-10-10-10-10-10-----------------------|
G|--------------------------------------------------------------------------|
D|--------------------------------------------------------------------------|
A|--------------------------------------------------------------------------|
E|--------------------------------------------------------------------------|

E|-10^(12)8-10^(12)-8---------8^---------8-------8^-------------------15-|
B|--------------------10-8-10----10-8-10---10-10----10-8-10-15-15^(17)---|
G|-----------------------------------------------------------------------|
D|-----------------------------------------------------------------------|
A|-----------------------------------------------------------------------|
E|-----------------------------------------------------------------------|

E|--------15-------15-------15-------15-------15-------15-------------|
B|-15^(17)--15^(17)--15^(17)--15^(17)--15^(17)--15^(17)--15^-13-15-13-|
G|--------------------------------------------------------------------|
D|--------------------------------------------------------------------|
A|--------------------------------------------------------------------|
E|--------------------------------------------------------------------|

E|----------------------------------15-------15-------15-------15-------15-|
B|-15^(17)15-13-15^(17)15-13-15^(17)--15^(17)--15^(17)--15^(17)--15^(17)---|
G|-------------------------------------------------------------------------|
D|-------------------------------------------------------------------------|
A|-------------------------------------------------------------------------|
E|-------------------------------------------------------------------------|

E|---------------------------------------------------------------------|
B|-15^(17)13-15-15^(17)15-13-15^(17)15-13-15^(17)15-13-15^(17)15-13-15-|
G|---------------------------------------------------------------------|
D|---------------------------------------------------------------------|
A|---------------------------------------------------------------------|
E|---------------------------------------------------------------------|

E|-------------------------------------------------------------------------|
B|-15^(17)15-13-15^(17)15-13-15^(17)15-13-15^(17)15-13-----------13-13--13-|
G|-----------------------------------------------------14-12-14-------14---|
D|-------------------------------------------------------------------------|
A|-------------------------------------------------------------------------|
E|-------------------------------------------------------------------------|

E|-------------------------------------------------------------------5-------|
B|-13--------\\5-----5-5-5-----5-5-----5-5-----5-5-5-8-8-8-8-8-8^(10)-8^(10--|
G|---14-14-14---7^(9)-----7^(9)---7^(9)---7^(9)------------------------------|
D|---------------------------------------------------------------------------|
A|---------------------------------------------------------------------------|
E|---------------------------------------------------------------------------|

E|-5------5-5-------5-5-8-10^(12)10^(12)10^(12)10-8-10^(12)-10^(12)10-8--|
B|--8^(10)----8^(10)-----------------------------------------------------|
G|-----------------------------------------------------------------------|
D|-----------------------------------------------------------------------|
A|-----------------------------------------------------------------------|
E|-----------------------------------------------------------------------|
Composição de Keith Richards / Mick Jagger
Colaboração e revisão:
  • Leonardo Marques
2.787 exibições
    • ½ Tom
    • A
    • Bb
    • B
    • C
    • Db
    • D
    • Eb
    • E
    • F
    • F#
    • G
    • Ab
  • Adicionar à lista

    0 comentários

    Mostrar mais comentários
    00:00 / 00:00
    outros vídeos desta música
    repetir qualidade Automático
    Outros vídeos desta música
    00:00 / 00:00
    Automático

    Cifra Club Pro

    Aproveite o Cifra Club com benefícios exclusivos e sem anúncios
    7 dias grátis
    Cifra Club Pro
    Aproveite o Cifra Club com benefícios exclusivos e sem anúncios
    7 dias grátis
    OK