Cifra Club

Aprenda

You Drive Me Wild

The Runaways

Cifra: Principal (violão e guitarra)
tom: D
  b= string bend
  h= hammer on
  p= pull off
  PH= Pinch Harmonic

Intro: Tocar 4 vezes antes de começar a letra
E |---------------0--0----------0--0---------0----------------------------|
B |---------------0--0----------0--0---------0----------------------------|
G |-----------------------------------------------------------------------|
D |-----------------------------------------------------------------------|
A |----2-2----------------------------------------------------------------|
E |----0-0----3b----------3b------------3b--------------------------------|

               1.You know when you're close..
               2.That's why I want you so bad...

E |---------------0--0----------0--0---------0----------------------------|
B |---------------0--0----------0--0---------0----------------------------|
G |-----------------------------------------------------------------------|
D |-----------------------------------------------------------------------|
A |----2-2----------------------------------------------------------------|
E |----0-0----3b----------3b------------3b--------------------------------|

                C'mon,c'mon and take me home...
                You Drive Me Wild, Yeah Yeah...
Chorus

E |-------------------------------------|----------------------------------
B |-------------------------------------|----------------------------------
G |-------------------------------------|----------------------------------
D |-------------------------------------|----------------------------------
A |-------------7--7--9--9--7--7--9--9--|---7--7--9--9--7--7--9--9---------
E |---2--3--4---5--5--5--5--5--5--5--5--|---5--5--5--5--5--5--5--5---------

E |-------------------------------|----------------------------------------
B |-------------------------------|----------------------------------------
G |-----9--9--9--9--9--9--9-------|----------------------------------------
D |-----9--9--9--9--9--9--9-------|----------------------------------------
A |-----7--7--7--7--7--7--7-------|---------7--7--9--9--7--7--9--9---------
E |-------------------------------|---------5--5--5--5--5--5--5--5---------

Guitar Solo
E |---5PH------------------------------------------------------------------
B |---------------------5-------5------------------------------------------
G |--------b2p0----2h4-----2h4-----4p2p0-----4p2p0-----4p2p0-----0---------
D |--------------------------------------2---------2---------2-------------
A |------------------------------------------------------------------------
E |-------------------------------------------------------------------3----

E |---------12---------------------12-----12------12-----------------------
B |---------------15--12-------12-----12------12--------15b---------16b----
G |---14------------------14-----------------------------------------------
D |------------------------------------------------------------------------
A |------------------------------------------------------------------------
E |------------------------------------------------------------------------

E |------3----5p3---------3b-------3h5-----5b----------3---2---------------
B |---5--------------5---------5------------------5------------------------
G |------------------------------------------------------------------------
D |------------------------------------------------------------------------
A |------------------------------------------------------------------------
E |------------------------------------------------------------------------

E |--------------------------8---5-----------------------------------------
B |----------------------------------8---5---------------------------------
G |--------5----5h7p5-------------------------7--5-----5h7p5---------------
D |----7----------------7--------------------------------------------------
A |------------------------------------------------------------------------
E |------------------------------------------------------------------------
Composição de Joan Jett
Colaboração e revisão:
  • Claudia S
7.017 exibições
    • ½ Tom
    • A
    • Bb
    • B
    • C
    • Db
    • D
    • Eb
    • E
    • F
    • F#
    • G
    • Ab
  • Adicionar à lista

    0 comentários

    Ver todos os comentários

    Conseguiu tocar?

    1 Tocaram 0 Ainda não

    Grave um vídeo tocando You Drive Me Wild e nos envie!

    00:00 / 00:00
    Outros vídeos desta música
    Repetir Qualidade Automático
    Outros vídeos desta música
    00:00 / 00:00
    Automático

    Cifra Club Pro

    Aproveite o Cifra Club com benefícios exclusivos e sem anúncios
    Cifra Club Pro
    Aproveite o Cifra Club com benefícios exclusivos e sem anúncios
    OK