Cifra Club

Aprenda

Turn On Me

The Shins

Cifra: Completa (violão e guitarra)
tom: C
(intro / verso)

E|-----------------------------------------|
B|-----------------------------------------|
G|-------0---------------------------------|
D|---2h3-----2h3-2----2----------0---------|
A|-3-------3--------3---0-3---2h3---2h3-2--|
E|---------------------------3-----3-------| (2x)

C
You can fake it for a while,
Bite your tongue and smile,
                                G
Like every mother does an ugly child.
                        C
But the stars are leaking out,
Like spittle from a cloud,
                                G
Amassed resentment counting ounce and pound.

                        F
You're entertaining any doubt,
                        C               G
Because you had to know that I was fond of you,
Am      G       F
Fond of Y-O-U,
                        C               G    Am G
Though I knew you masked your disdain.
F               C                       G
I can see that change was just too hard for us,
Am      G       F
Hard for us.
You always had to hold the reigns,
                        Dm              G
But where I'm headed, you just don't know the way.

C (riff 1)
So affections fade away,
And do adults just learn to play
                                G
The most ridiculous, repulsive games?
                        C
On the faith of ruddy sons,

And the double-barreled guns,

You better hurry,
        G
Rabbit, run, run, run.
                        C
'Cause meeting you was fun,
                                                G
And there's a lot of hungry howlers in this one cell.
We’re taking it over,
                        C
Their brittle, thorny stems,
They break before they bend,
                                G
And neither one of us is one of them.

                        F
And the tails will never mend,
                C               G
'Cause you had it in for me so long ago.
Am      G               F
Boy, I still don't know,
                C               G
I don't know why and I don't care,
        Am      G                   F
You don't hide me anymore,
                C               G
If you'd only seen yourself hating me.
Am G            F
Hating me,
           C                 G
When I've been so much more than fair.
                        Dm              G
But then you had to lay those feelings bare,
      Dm                G
One thing I know still got you scared,
        Dm
You're all that cold iron,
        F                    G
And never once aired of our dead.

(solo)
    G C                                                    G
E|-------------------------------------------------------------------|
B|-------------------------------------------------------------------|
G|-------------------------------------------------------------------|
D|-5/1010101010101010101010101010101010101010101010101010\55555555555|
A|-5/1010101010101010101010101010101010101010101010101010\55555555555|
E|-3/8-8-8-8-8-8-8-8-8-8-8-8-8-8-8-8-8-8-8-8-8-8-8-8-8-8-\33333333333|
(2x - começa o solo junto com esse riff 2x)

E|-----3---3-------3---3-----------------------|
B|-5-----------5-------------------------------|
G|---5---5---5---5---5---5-4h5h7-0-0-4h5h7-0-0-|
D|---------------------------------------------|
A|---------------------------------------------|
E|---------------------------------------------|

E|----3---3--------3--------------------------------|
B|-5-----------5-----6-5-3----------------------6-5-|
G|---5---5---5---5--------5-4h5h7-4h5h7-0-4-5-7-7-5-|
D|--------------------------------------------------|
A|--------------------------------------------------|
E|--------------------------------------------------|

F                       C               G
You had to know that I was fond of you,
Am  G          F
Fond of Y-O-U.
                C               G
So I took your lips at the time,
Am G            F
AHHHHHHHHHH
                        C               G
And to change like that is just so hard to do,
Am G            F
Hard to do.
                C               G
Don't let it whip-crack your life,
        Dm              G
And bow out from the fight,
        Dm              G
'Cause oh, how your sisters will write.
                Dm
The worst part is over,
        F       G
Now, get back on that horse and ride.
Composição de James Mercer
Colaboração e revisão:
  • Carolina Bertanha
181 exibições
    • ½ Tom
    • A
    • Bb
    • B
    • C
    • Db
    • D
    • Eb
    • E
    • F
    • F#
    • G
    • Ab
  • Adicionar à lista

    0 comentários

    Ver todos os comentários

    Conseguiu tocar?

    0 Tocaram 0 Ainda não

    Grave um vídeo tocando Turn On Me e nos envie!

    00:00 / 00:00
    Outros vídeos desta música
    Repetir Qualidade Automático
    Outros vídeos desta música
    00:00 / 00:00
    Automático

    Cifra Club Pro

    Aproveite o Cifra Club com benefícios exclusivos e sem anúncios
    Cifra Club Pro
    Aproveite o Cifra Club com benefícios exclusivos e sem anúncios
    OK