Cifra Club

William, It Was Really Nothing

The Smiths

Tab de baixo: Principal
Verse
G |--------------------------------|--------------------------------|
D |--------------------------------|-4-------4----------------------|
A |---------------5---5---3-5-3-5--|---------------2---2-4---2------|
E |-3-------3----------------------|-----------------------------2--|

G |--------------------------------|--------------------------------|
D |--------------------------------|--------------------------------|
A |---------------5---5-5---5------|-------------0-2---2---4-2------|
E |-3~~----------------------------|-2~~-------------------------2--|

Verse End A
G |--------------------------------|--------------------------------|
D |--------------------------------|-5-------5-----4---4-5-----4----|
A |--------------------------------|-----------------------------5--|
E |-3-------3-----3---3-3---3---2--|--------------------------------|

G |--------------------------------|--------------------------------|
D |--------------------------------|--------------------------------|
A |-5-------5-----5---5-5---7---0--|-0-------0-----0---0-0---2------|
E |--------------------------------|-----------------------------2--|

G |--------------------------------|--------------------------------|
D |--------------------------------|--------------------------------|
A |--------------------------------|-0-------0-----0---0-0---0---1--|
E |-3-------3-----3---3-3---3---2--|--------------------------------|

Verse End B (God knows I've got to live mine)
G |--------------------------------|/7-------------6----------------|
D |--------------------------------|--------------------------------|
A |-2-------------2---2-2---2------|------------------------(7)-(9)-|
E |--------------------------------|--------------------------------|

G |--------------------------------|--------------------------------|
D |--------------------------------|--------------------------------| 
A |-5-------------5---5-5---5------|-7-------------7---7-7---7------|  
E |--------------------------------|--------------------------------|
(When played 2nd time stop at last bar)

Insrtrumental Bridge
G |--------------------------------|--------------------------------|
D |---------5-----------5^7^5------|---------5----------------------|
A |--------------------------------|--------------------------------|
E |-3-------------3-------------2--|-3-------------3---3-3---3---4--|

G |----------------------------6^7^|-6------------------------------|
D |---------7----------------------|-----------------5-------7------|
A |--------------------------------|------(stop)--------------------|
E |-5-------------5-----5----------|--------------------------------|

Chorus
G |--------------------------------|--------------------------------|
D |--------------------------------|--------------------------------|
A |---------------5---5-5---5------|--------------------------------|
E |-3-------3----------------------|-3-------3-----5---5-5---5---6--|

G |--------------------------------|---------11--------------11-----|
D |---------9--------------9-10-11-|--------------------------------|
A |--------------------------------|-9-------------9-----9-------9--|
E |-7-------------7----------------|--------------------------------|

Chorus End
G |--------------------------------|--------------------------------|
D |---------9---------9--7---------|--------------------------------|
A |--------------------------9--7~~|~-----------------------------/-|
E |-7-------------7----------------|--------------------------------|

Order:
[00:01] Verse 2x
[00:15] Verse End A
[00:26] Verse End B 2x
[00:41] Instrumental Bridge
Block
[00:48] Chorus 2x
[01:03] Chorus End
[01:07] Instrumental Bridge
Repeat Block 3 times
00:00 / 00:00
Outros vídeos desta música
Repetir
Outros vídeos desta música
Composição de Johnny Marr / Morrissey
387 exibições

0 comentários

Ver todos os comentários

Conseguiu tocar?

0 Tocaram 0 Ainda não

Grave um vídeo tocando William, It Was Really Nothing e nos envie!

Entre para oCifra Club PRO

Tenha acesso a benefícios exclusivos no App e no Site

  • Chega de anúncios

  • Prioridade de compra em lançamentos

  • Mais recursos no app do Afinador

  • Atendimento Prioritário

  • Descontos nos produtos Cifra Club

  • Ajude a produzir mais conteúdo

00:00 / 00:00

Cifra Club Pro

Aproveite o Cifra Club com benefícios exclusivos e sem anúncios
Cifra Club Pro
Aproveite o Cifra Club com benefícios exclusivos e sem anúncios
OK