Cifra Club

Aprenda

Ask Me Anything

The Strokes

Cifra: Versão 2 (violão e guitarra)
tom: Ab
Solo no piano, se for tocada com efeitos no pedal, fica igual!
ouça a música e acompanhe!

e|------------------|------------------|
B|------------------|------------------|
G|------------------|------------------|
D|------5---6-5---5-|------5---6-5---5-|
A|-6-6----6-----6---|-6-6----6-----6---|
E|------------------|------------------|

e|-----------------|-----------------|
B|-----------------|-----------------|
G|---------5-------|---------5-------|
D|---3-6-----6---3-|---3-6-----6---3-|
A|-4-----4-----4---|-4-----4-----4---|
E|-----------------|-----------------|

e|-----------------|-----------------|
B|-----------------|-----------------|
G|---------5-------|---------5-------|
D|-----------6-----|-----------6-----|
A|---3-6---------3-|---3-6---------3-|
E|-4-----4-----4---|-4-----4-----4---|

'right wrong..what to do?'

e|------------------|------------------|
B|------------------|------------------|
G|------------------|------------------|
D|------5---6-5---5-|------5---6-5---5-|
A|-6-6----6-----6---|-6-6----6-----6---|
E|------------------|------------------|

e|-----------------|-----------------|
B|-----------------|-----------------|
G|---------5-------|---------5-------|
D|---3-6-----6---3-|---3-6-----6---3-|
A|-4-----4-----4---|-4-----4-----4---|
E|-----------------|-----------------|

e|-----------------|-----------------|
B|-----------------|-----------------|
G|---------5-------|---------5-------|
D|-----------6-----|-----------6-----|
A|---3-6---------3-|---3-6---------3-|
E|-4-----4-----4---|-4-----4-----4---|

'hostile indians'

e|------------------|------------------|
B|------------------|------------------|
G|------------------|------------------|
D|------5---6-5---5-|------5---6-5---5-|
A|-6-6----6-----6---|-6-6----6-----6---|
E|------------------|------------------|

e|-----------------|-----------------|
B|-----------------|-----------------|
G|---------5-------|---------5-------|
D|---3-6-----6---3-|---3-6-----6---3-|
A|-4-----4-----4---|-4-----4-----4---|
E|-----------------|-----------------|

e|-----------------|-----------------|-----------------|
B|-----------------|-----------------|-----------------|
G|---------5-------|---------5-------|---------5-------|
D|-----------6-----|-----------6-----|-----------6-----|
A|---3-6---------3-|---3-6---------3-|---3-6---------3-|
E|-4-----4-----4---|-4-----4-----4---|-4-----4-----4---|

'iv'e got nothing to say'

e|---------||---------|
B|---------||-------8-|
G|-------5-||-----8---|
D|-----6---||---8-----|
A|---6-----||-6-------|
E|-4-------||---------|

e|---------|-------||---------|---------------------------|
B|---------|-------||---------|---------------------------|
G|-----5---|-------||-----5---|-----3--------3--------3---|
D|---6---6-|-------||---6---6-|---5---5----5---5----5---5-|
A|-6-------|-4-4-4-||-6-------|-6--------6--------6-------|
E|---------|-------||---------|---------------------------|

e|---------|-------------|---------|---------------------------|
B|---------|-------------|---------|---------------------------|
G|-----5---|-------------|-----3---|-----5--------5--------5---|
D|---6---6-|---6---6---6-|---5---5-|---6---6----6---6----6---6-|
A|-6-------|-4---4---4---|-6-------|-6--------6--------6-------|
E|---------|-------------|---------|---------------------------|

e|---------|---------|-------------||---------|---------------------------|
B|---------|---------|-------------||---------|---------------------------|
G|-----3---|-----5---|-------------||-----5---|-----3--------3--------3---|
D|---5---5-|---6---6-|---6---6---6-||---6---6-|---5---5----5---5----5---5-|
A|-6-------|-6-------|-4---4---4---||-6-------|-6--------6--------6-------|
E|---------|---------|-------------||---------|---------------------------|

e|---------|---|---------|---|---------||---|
B|---------|---|---------|---|---------||---|
G|-----5---|---|-----3---|---|-----8---||-5-|
D|---6---6-|---|---5---5-|---|---8---8-||-6-|
A|-6-------|-4-|-6-------|-6-|-6-------||-6-|
E|---------|---|---------|---|---------||---|

'harmless children'

e|------------------|------------------|
B|------------------|------------------|
G|------------------|------------------|
D|------5---6-5---5-|------5---6-5---5-|
A|-6-6----6-----6---|-6-6----6-----6---|
E|------------------|------------------|

e|-----------------|-----------------|
B|-----------------|-----------------|
G|---------5-------|---------5-------|
D|---3-6-----6---3-|---3-6-----6---3-|
A|-4-----4-----4---|-4-----4-----4---|
E|-----------------|-----------------|

e|-----------------|-----------------|
B|-----------------|-----------------|
G|---------5-------|---------5-------|
D|-----------6-----|-----------6-----|
A|---3-6---------3-|---3-6---------3-|
E|-4-----4-----4---|-4-----4-----4---|

'don't be a coconut'

e|------------------|------------------|
B|------------------|------------------|
G|------------------|------------------|
D|------5---6-5---5-|------5---6-5---5-|
A|-6-6----6-----6---|-6-6----6-----6---|
E|------------------|------------------|

e|-----------------|-----------------|
B|-----------------|-----------------|
G|---------5-------|---------5-------|
D|---3-6-----6---3-|---3-6-----6---3-|
A|-4-----4-----4---|-4-----4-----4---|
E|-----------------|-----------------|

e|-----------------|-----------------|
B|-----------------|-----------------|
G|---------5-------|---------5-------|
D|-----------6-----|-----------6-----|
A|---3-6---------3-|---3-6---------3-|
E|-4-----4-----4---|-4-----4-----4---|

'we could drag it out'

e|------------------|------------------|
B|------------------|------------------|
G|------------------|------------------|
D|------5---6-5---5-|------5---6-5---5-|
A|-6-6----6-----6---|-6-6----6-----6---|
E|------------------|------------------|

e|-----------------|-----------------|
B|-----------------|-----------------|
G|---------5-------|---------5-------|
D|---3-6-----6---3-|---3-6-----6---3-|
A|-4-----4-----4---|-4-----4-----4---|
E|-----------------|-----------------|

e|-----------------|-----------------|-----------------|
B|-----------------|-----------------|-----------------|
G|---------5-------|---------5-------|---------5-------|
D|-----------6-----|-----------6-----|-----------6-----|
A|---3-6---------3-|---3-6---------3-|---3-6---------3-|
E|-4-----4-----4---|-4-----4-----4---|-4-----4-----4---|

'iv'e got nothing to say'

e|---------||---------|
B|---------||-------8-|
G|-------5-||-----8---|
D|-----6---||---8-----|
A|---6-----||-6-------|
E|-4-------||---------|

e|---------|-------||---------|---------------------------|
B|---------|-------||---------|---------------------------|
G|-----5---|-------||-----5---|-----3--------3--------3---|
D|---6---6-|-------||---6---6-|---5---5----5---5----5---5-|
A|-6-------|-4-4-4-||-6-------|-6--------6--------6-------|
E|---------|-------||---------|---------------------------|

e|---------|-------------|---------|---------------------------|
B|---------|-------------|---------|---------------------------|
G|-----5---|-------------|-----3---|-----5--------5--------5---|
D|---6---6-|---6---6---6-|---5---5-|---6---6----6---6----6---6-|
A|-6-------|-4---4---4---|-6-------|-6--------6--------6-------|
E|---------|-------------|---------|---------------------------|

e|---------|---------|-------------||---------|---------------------------|
B|---------|---------|-------------||---------|---------------------------|
G|-----3---|-----5---|-------------||-----5---|-----3--------3--------3---|
D|---5---5-|---6---6-|---6---6---6-||---6---6-|---5---5----5---5----5---5-|
A|-6-------|-6-------|-4---4---4---||-6-------|-6--------6--------6-------|
E|---------|---------|-------------||---------|---------------------------|

e|---------|---|---------|---|---------| 
B|---------|---|---------|---|---------|
G|-----5---|---|-----3---|---|-----8---| 
D|---6---6-|---|---5---5-|---|---8---8-| 
A|-6-------|-4-|-6-------|-6-|-6-------| 
E|---------|---|---------|---|---------|

e|----||---||---||---||---|
B|----||---||---||---||---|
G|-8--||-7-||-5-||-3-||-1-|
D|-10-||-8-||-6-||-3-||-1-|
A|----||---||---||---||---|
E|----||---||---||---||---|

e|---||---||---||---|
B|---||---||---||---|
G|-7-||-5-||-3-||-1-|
D|-8-||-6-||-3-||-1-|
A|---||---||---||---|
E|---||---||---||---|

e|---||---||---||---|
B|---||---||---||---|
G|-7-||-5-||-3-||-1-|
D|-8-||-6-||-3-||-1-|
A|---||---||---||---|
E|---||---||---||---|

'iv'e got nothing to say'

e|---------||---------|
B|---------||-------8-|
G|-------5-||-----8---|
D|-----6---||---8-----|
A|---6-----||-6-------|
E|-4-------||---------|

e|---------|-------||---------|---------------------------|
B|---------|-------||---------|---------------------------|
G|-----5---|-------||-----5---|-----3--------3--------3---|
D|---6---6-|-------||---6---6-|---5---5----5---5----5---5-|
A|-6-------|-4-4-4-||-6-------|-6--------6--------6-------|
E|---------|-------||---------|---------------------------|

e|---------|-------------|---------|---------------------------|
B|---------|-------------|---------|---------------------------|
G|-----5---|-------------|-----3---|-----5--------5--------5---|
D|---6---6-|---6---6---6-|---5---5-|---6---6----6---6----6---6-|
A|-6-------|-4---4---4---|-6-------|-6--------6--------6-------|
E|---------|-------------|---------|---------------------------|

e|---------|---------|-------------||---------|---------------------------|
B|---------|---------|-------------||---------|---------------------------|
G|-----3---|-----5---|-------------||-----5---|-----3--------3--------3---|
D|---5---5-|---6---6-|---6---6---6-||---6---6-|---5---5----5---5----5---5-|
A|-6-------|-6-------|-4---4---4---||-6-------|-6--------6--------6-------|
E|---------|---------|-------------||---------|---------------------------|

e|---------|---|---------|---|---------||----|
B|---------|---|---------|---|---------||----|
G|-----5---|---|-----3---|---|-----8---||-8--|
D|---6---6-|---|---5---5-|---|---8---8-||-10-|
A|-6-------|-4-|-6-------|-6-|-6-------||-11-|
E|---------|---|---------|---|---------||----|
Composição de Julian Casablancas / Nick Valensi
Colaboração e revisão:
  • Daiane Baroni
1.271 exibições
    • ½ Tom
    • A
    • Bb
    • B
    • C
    • Db
    • D
    • Eb
    • E
    • F
    • F#
    • G
    • Ab
  • Adicionar à lista

    0 comentários

    Ver todos os comentários

    Conseguiu tocar?

    0 Tocaram 0 Ainda não

    Grave um vídeo tocando Ask Me Anything e nos envie!

    00:00 / 00:00
    Outros vídeos desta música
    Repetir Qualidade Automático
    Outros vídeos desta música
    00:00 / 00:00
    Automático

    Cifra Club Pro

    Aproveite o Cifra Club com benefícios exclusivos e sem anúncios
    Cifra Club Pro
    Aproveite o Cifra Club com benefícios exclusivos e sem anúncios
    OK