Cifra Club

Aprenda

Is This It

The Strokes

Tab de baixo: Principal
Versão 1
--------


Can't you see I'm trying, I don't even like it
I'd just lied to get to your apartment
Now I'm staying there just for a while
I can't think 'cause I'm just way to tired 

O baixo entra a partir daqui:1° parte
(2X)
E----------------------------------------------------+
A----------------------------------------------------+
D333333333333333333-555555555555555555---------------+
G----------------------------------------------------+

Is this it
Is this it
Is this it
Depois deste refrão fica assim:2°parte
(2X)
E----------------------------------------------------+
A----------------------------------------------------+
D554545----------------------------------------------+
G------57--------------------------------------------+

(2X)
E----------------------------------------------------+
A----------------------------------------------------+
D332323----------------------------------------------+
G------35--------------------------------------------+
(repete 1X)


Said they'd give you anything you ever wanted
When they lied I knew
We would just stay both children trying hard
Not to realize I was sitting right behind her

essa parte fica igual a primeira:

Dear, can't you see
It's them it's not me
We're not enemies
We just disagree
If I was like him
Office in this bar
He changes his mind
Says I went too far
We all disagree
I think we should disagree, yeah

aqui muda um pouco:3°parte
(2X)
E----------------------------------------------------+
A----------------------------------------------------+
D3333333333333323-5555555555555555-------------------+
G----------------------------------------------------+

Is this it
Is this it
Is this it
esse verso fica:2°parte
Can't you see I'm trying, I don't even like it
I'd just lied to get to your apartment
Now I'm staying there just for a while
I can't think 'casue I'm just way to tired

depois finaliza só as guitarras e a batera.

()



Versão 2
-------
Is This It ----- The Strokes

por freak@morissette.net 



G|--------------------------------------------------------------------------------|
D|-------------------------------------------------------------------------------o|
A|-8-8--8-8--8-8--8-8--8-8--8-8--8-8--8-8----------------------------------------o|
E|----------------------------------------8-8--8-8--8-8--8-8--8-8--8-8--8-8--8-8--|


G|-----------9-10-12---------------7-9-------------9-10-12-------------12-14-15---|
D|-----------------------------10-------8-8--12P8-----------8-8--12P8------------o|
A|-8-8--12P8---------8-8--12P8---------------------------------------------------o|
E|--------------------------------------------------------------------------------|


G|--------------------------------------------------------------------------------|
D|-------------------------------------------------------------------------------o|
A|-8-8--8-8--8-8--8-8--8-8--8-8--8-8--8-8----------------------------------------o|
E|----------------------------------------8-8--8-8--8-8--8-8--8-8--8-8--8-8--8-8--|


G|-------------------------------------------------------------------------------|
D|--------------------------------8--7-------------------------------------------o|
A|-8-8--8-8--8-8--8-8--8-8--8-8--------------------------------------------------o|
E|----------------------------------------8-8--8-8--8-8--8-8--8-8--8-8--8-8--8-8--|


P = Pull Off


o = sinal de
o = repetição





_______________________________________________________
Contribuição: Cristina(crisgs@msn.com)
Composição de Julian Casablancas
11.847 exibições

0 comentários

Ver todos os comentários

Conseguiu tocar?

1 Tocaram 0 Ainda não

Grave um vídeo tocando Is This It e nos envie!

00:00 / 00:00
Outros vídeos desta música
Repetir Qualidade Automático
Outros vídeos desta música
00:00 / 00:00
Automático

Cifra Club Pro

Aproveite o Cifra Club com benefícios exclusivos e sem anúncios
Cifra Club Pro
Aproveite o Cifra Club com benefícios exclusivos e sem anúncios
OK