Cifra Club

Aprenda

Whatever Happenned

The Strokes

Cifra: Versão 3 (violão e guitarra)
tom: B
intro; 

e|------------
B|------------
G|------------
D|------------
A-22222222222-
E|------------

 B
I want to be forgotten, 
 E
and I don't want to be reminded. 
  C#m
You say "please don't make this harder." 
  E
No, I won't yet. 

B 
I wanna be beside her. 
E
She wanna be admired. 
C#m
You say "please don't make this harder." 
E
No, I won't yet. 

G#m F#  

        4---2-2----------|4-----2---------|4---2-2---------|4-----2---------|
        --4-----4p2-----|--4-----4-------|--4-----4p2-----|--4-----4-------|
        ------------4---|----4-----4-----|------------4---|----4-----4-----|
        ----------------|----------------|----------------|----------------|
        ----------------|----------------|----------------|----------------|
        ----------------|----------------|----------------|----------------|

        G#m   F#         C#m      B               G#m   F#

        7-------6------/|9-----------------------|7-------6------/|
        ----9-----------|------11---/12-12-11-9--|----9-----------|
        --8---8---------|---9-----9--------------|--8---8---------|
        ----------------|------------------------|----------------|
        ----------------|------------------------|----------------|
        ----------------|------------------------|----------------|

        C#m      B

        9-----------------------|
        ------11---/12-12-11-9--|
        ---9-----9--------------|
        ------------------------|
        ------------------------|
        ------------------------|

       C#m B        

 G#m   F#       C#m         B
Oh dear, is it really all true?
 G#m   F#                      C#m         B  
Did they offend us and they want it to sound new? 
    G#m   F#        C#m         B
Top ten ideas for countdown shows... 
 G#m             F#            C#m         B
Whose culture is this and does anybody know? 
 G#m         F#         C#m         B
I wait and tell myself "life ain't chess," 
G#m              F#      F#         B-B-B - G#m - G#m - G#m  
But no one comes in and yes, you're alone... 
 B-B-B-G#m - G#m - G#m  C#m       B
You don't miss me, I know.  
 
 G#m      F#      C#m        B
Oh Tennessee, what did you write? 
 G#m      F#      C#m        B
I come together in the middle of the night.
 G#m       F#              C#m        B 
Oh that's an ending that I can't write, 'cause 
 G#m      F#    C#m               B
I've got you to le       t me down. 

(repete intro) 

 B
I want to be forgotten, 
 E
and I don't want to be reminded. 
  C#m
You say "please don't make this harder." 
  E
No, I won't yet. 

B 
I wanna be beside her. 
E
She wanna be admired. 
C#m
You say "please don't make this harder." 
E
No, I won't yet. 

obs; a nota "Abm" tem d ser feita em pestana na quarta casa, dedos 3 e 4, na 5a e 4a corda!
Compositor não encontrado.
Colaboração e revisão:
  • Daiane Baroni
2.128 exibições
    • ½ Tom
    • A
    • Bb
    • B
    • C
    • Db
    • D
    • Eb
    • E
    • F
    • F#
    • G
    • Ab
  • Adicionar à lista

    0 comentários

    Ver todos os comentários

    Conseguiu tocar?

    0 Tocaram 0 Ainda não

    Grave um vídeo tocando Whatever Happenned e nos envie!

    00:00 / 00:00
    Outros vídeos desta música
    Repetir Qualidade Automático
    Outros vídeos desta música
    00:00 / 00:00
    Automático

    Cifra Club Pro

    Aproveite o Cifra Club com benefícios exclusivos e sem anúncios
    Cifra Club Pro
    Aproveite o Cifra Club com benefícios exclusivos e sem anúncios
    OK