Cifra Club

Sweetness Intro

The Trews

Cifra: Principal (violão e guitarra)
tom: C
Tuning: Drop D (Dadgbe)

Intro
e|------------------------|
b|------------------------|
g|------------------------|
d|---------7-7------------|
a|5-5-5-5--5-5-3-3-3-3----|
D|-4-5-6-0-7-7--3-3-3-3--0|

Verse
e|-------------------------------------|
b|-------------------------------------|
g|-------------------------------------|
d|7-7-7-7---7-7-7-7---5-5-5-5---5-5-5-5|
a|5-5-5-5---5-5-5-5---3-3-3-3---3-3-3-3|
D|7-7-7-7---7-7-7-7---5-5-5-5---5-5-5-5|

Fun time!
00:00 / 00:00
Outros vídeos desta música
Repetir
Outros vídeos desta música
Compositor não encontrado.
151 exibições
    • ½ Tom
    • A
    • Bb
    • B
    • C
    • Db
    • D
    • Eb
    • E
    • F
    • F#
    • G
    • Ab
  • Adicionar à lista

    0 comentários

    Ver todos os comentários

    Entre para oCifra Club PRO

    Tenha acesso a benefícios exclusivos no App e no Site

    • Chega de anúncios

    • Prioridade de compra em lançamentos

    • Mais recursos no app do Afinador

    • Atendimento Prioritário

    • Descontos nos produtos Cifra Club

    • Ajude a produzir mais conteúdo

    00:00 / 00:00

    Cifra Club Pro

    Aproveite o Cifra Club com benefícios exclusivos e sem anúncios
    Cifra Club Pro
    Aproveite o Cifra Club com benefícios exclusivos e sem anúncios
    OK