Cifra Club

Black Friday Cifra Club

Heavily Broken

The Veronicas

Cifra: Principal (violão e guitarra)
tom: G
Intro / Verso:

E|---------------------------------------------------|
A|-------------3-----------------------3-------------|
D|-------0-------0---0---------0---------0-----0-----|
G|----2----2-------2--------2-----2---------2--------|
B|--3---------------------3--------------------------|
E|---------------------------------------------------|

E|-------------3--------------------------3----------|
A|-------3-------3-----3-----------3--------3-----3--|
D|----0----0--------0-----------0----0---------0-----|
G|---------------------------------------------------|
B|---------------------------------------------------|
E|--0------------------------0-----------------------|

Verso:
Everyday I sit here waiting
Everyday just seems so long
And now I've had enough of all the hating

       C9   Em
Do we even care?
      D   C9
It's so unfair

Verso:
Any day it'll all be over
Everyday there's nothing new
And now I just try to find some hope
To try to holdon to

       C9     Em
But it starts again
        D    C9
It'll never end

Refrão:
               C9     Em
I'm heavily broken
            C9           D
And I don't know what to do
                          C9      Em
Can't you see that I'm choking
       C9         D
And I can't even move
                C9            Em
When there's nothing left to say
C9            D
What can you do
               C9     Em   D 
I'm heavily broken

And there's nothing I can do

Ponte:
Em                D
Feels like I'm drowning
        C9          D
I'm screaming for air (screaming for air)
  Em
Louder
       D             C9         D
I'm crying and you don't even care
00:00 / 00:00
Outros vídeos desta música
Repetir
Outros vídeos desta música
Composição de Jess e Lisa Origliasso
Colaboração e revisão:
  • Sidle .
  • Juliana Castro
11.378 exibições
    • ½ Tom
    • A
    • Bb
    • B
    • C
    • Db
    • D
    • Eb
    • E
    • F
    • F#
    • G
    • Ab
  • Adicionar à lista

    0 comentários

    Ver todos os comentários

    Conseguiu tocar?

    0 Tocaram 0 Ainda não

    Grave um vídeo tocando Heavily Broken e nos envie!

    Entre para oCifra Club PRO

    Tenha acesso a benefícios exclusivos no App e no Site

    • Chega de anúncios

    • Prioridade de compra em lançamentos

    • Mais recursos no app do Afinador

    • Atendimento Prioritário

    • Descontos nos produtos Cifra Club

    • Ajude a produzir mais conteúdo

    00:00 / 00:00

    Cifra Club Pro

    Aproveite o Cifra Club com benefícios exclusivos e sem anúncios
    Cifra Club Pro
    Aproveite o Cifra Club com benefícios exclusivos e sem anúncios
    OK