Cifra Club

Cadê Você

Theo Kant

Cifra: Principal (violão e guitarra)
tom: G
   Em                  C7M  
E|------------------------------------------|
B|------------------------------------------|
G|--0---0---0---0---0---0---0---0-----------|
D|4---4---4---4---2---2---2---2-------------|
A|------------------------------------------|
E|------------------------------------------|

   G
E|------------------------------------------|
B|------------------------------------------|
G|--0---0---0---0---0---0---0---0-----------|
D|0---0---0---0---0---0---0---0-------------|
A|------------------------------------------|
E|------------------------------------------|

[Primeira Parte]

Em        C7M       G  
   Eu nem sei o teu nome
Em        C7M        G
   Eu não sei quem é você
Em        C7M         G
   Eu nem tenho ideia quem possa ser
Em        C7M         G
   Eu não vejo a hora de te ver

[Refrão]

       Em  C7M      G
Mas eu vou te encontrar
Em   C7M    G
Onde eu sei lá
         D   C7M    G 
Então me diz cadê você?

[Segunda Parte]

Em     C7M          G
   Será que eu já te vi na rua
Em     C7M          G 
   Ou olhando para o céu
Em        C7M       G
   E minha única certeza
Em        C7M           G
   É a história sair do papel

[Refrão]

       Em  C7M      G
Mas eu vou te encontrar
Em   C7M    G
Onde eu sei lá
         D   C7M    G 
Então me diz cadê você?
       Em  C7M      G
Mas eu vou te encontrar
Em   C7M    G
Onde eu sei lá
         D   C7M    G 
Então me diz cadê você?
          D  C7M    G 
Então me diz cadê você?

[Ponte]

C7M
    Eu te procuro
D
  Eu não te encontro
Em     G  D    C7M
   Será que você vai saber
        G
Que é você
00:00 / 00:00
Outros vídeos desta música
Repetir
Outros vídeos desta música
Composição de Theo Kant
Colaboração e revisão:
  • Formiga grau
4 exibições
    • ½ Tom
    • A
    • Bb
    • B
    • C
    • Db
    • D
    • Eb
    • E
    • F
    • F#
    • G
    • Ab
  • Adicionar à lista

    0 comentários

    Ver todos os comentários

    Conseguiu tocar?

    1 Tocaram 0 Ainda não

    Grave um vídeo tocando Cadê Você e nos envie!

    Entre para oCifra Club PRO

    Tenha acesso a benefícios exclusivos no App e no Site

    • Chega de anúncios

    • Prioridade de compra em lançamentos

    • Mais recursos no app do Afinador

    • Atendimento Prioritário

    • Descontos nos produtos Cifra Club

    • Ajude a produzir mais conteúdo

    00:00 / 00:00

    Cifra Club Pro

    Aproveite o Cifra Club com benefícios exclusivos e sem anúncios
    Cifra Club Pro
    Aproveite o Cifra Club com benefícios exclusivos e sem anúncios
    OK