Pode Morar Aqui

Theo Rubia

Composição de: Theo Rubia
tom: Eb (forma dos acordes no tom de C ) Capotraste na 3ª casa
[Primeira Parte]

[Tab - Primeira Parte]

Parte 1 de 5
   C
E|-----------------------------------------------------|
B|-------1-------------------------1-------------------|
G|-----0---0---0-0---0-0---0-----0---0---0-0---0-0---0-|
D|---2-------2-----2-----2-----2-------2-----2-----2---|
A|-3-------------------------3-------------------------|
E|-----------------------------------------------------|

Parte 2 de 5
   Am7
E|-----------------------------------------------------|
B|-------1-------------------------1-------------------|
G|-----0---0---0-0---0-0---0-----0---0---0-0---0-0---0-|
D|---2-------2-----2-----2-----2-------2-----2-----2---|
A|-0-------------------------0-------------------------|
E|-----------------------------------------------------|

Parte 3 de 5
   C/E                         F
E|-----------------------------------------------------|
B|-------1-------------------------1-------------------|
G|-----0---0---0-0---0-0---0-----2---2---2-2---2-2---2-|
D|---2-------2-----2-----2-----3-------3-----3-----3---|
A|-----------------------------------------------------|
E|-0-------------------------1-------------------------|

Parte 4 de 5
   C                         G4
E|-----------------------------------------------------|
B|-------1-------------------------1-------------------|
G|-----0---0---0-0---0-0---0-----0---0---0-0---0-0---0-|
D|---2-------2-----2-----2-----0-------0-----0-----0---|
A|-3---------------------------------------------------|
E|---------------------------3-------------------------|

Parte 3 de 5
   C/E                         F
E|-----------------------------------------------------|
B|-------1-------------------------1-------------------|
G|-----0---0---0-0---0-0---0-----2---2---2-2---2-2---2-|
D|---2-------2-----2-----2-----3-------3-----3-----3---|
A|-----------------------------------------------------|
E|-0-------------------------1-------------------------|

Parte 5 de 5
   C/E         F             G4
E|-----------------------------------------------------|
B|-------1-----------1-------------1-------------------|
G|-----0---0-------2---2---------0---0---0-0---0-0---0-|
D|---2-------2---3-------3-----0-------0-----0-----0---|
A|-----------------------------------------------------|
E|-0-----------1-------------3-------------------------|

C                           Am7
  Minhas lamparinas estão acessas
C
  Só estou esperando o barulho
          Am7
Dos teus passos em direção à porta
C/E
    É só bater que eu
F                C       G4
  Vou abrir pra você entrar
C/E
    É só bater que eu
F                C/E  F     G4
  Vou abrir pra você    entrar

[Pré-Refrão]

            F
Eu já coloquei
                   C
As minhas vestes brancas
       Am7
Estou só te esperando
 G       C/E   F
Vem, vamos dançar
   Am7  G  C/E  F
Mara___na_ta
   Am7  G
Mara___nata

[Primeira Parte]

C                           Am7
  Minhas lamparinas estão acessas
C
  Só estou esperando o barulho
          Am7
Dos teus passos em direção à porta
C/E
    É só bater que eu
F                C       G
  Vou abrir pra você entrar
C/E
    É só bater que eu
F                C/E  F     G
  Vou abrir pra você    entrar

[Pré-Refrão]
 
            F
Eu já coloquei
                   C
As minhas vestes brancas
       Am7
Estou só te esperando
 G      C/E    F
Vem, vamos dançar
   Am7  G    F
Mara___na_ta
   Am7  G
Mara___nata

       C/E  F
Eu já coloquei
                   C
As minhas vestes brancas
       Am7
Estou só te esperando
 G      C/E    F
Vem, vamos dançar
   Am7  G    F
Mara___na_ta
   Am7  G
Mara___nata

( F  G  Am7  Em )

[Refrão]

F
  Tem fogo nos olhos
G
  Eu não imaginava
Am7
    Que era lindo assim
Em 
   Que era lindo assim
F
  Meu noivo esperado
G
  Eu abro a minha casa
Am7
    Pode morar aqui
Em 
   Pode morar aqui

F
  Tem fogo nos olhos
G
  Eu não imaginava
Am7
    Que era lindo assim
Em 
   Que era lindo assim
F                
  Meu noivo esperado
G
  Eu abro a minha casa
Am7
    Pode morar aqui
Em 
   Pode morar aqui

[Solo] F  G  Am7  Em 
       F  G  Am7  Em
       F  G  Am7  Em 
       F  G  Am7  Em 

[Tab - Solo]

Parte 1 de 7
E|-----------------------------------------------------|
B|------------------------------5----------------------|
G|-5-5-5-------5-5-5--------5-7------------------------|
D|-------5-5-5-------5-5-5-----------------------------|
A|-----------------------------------------------------|
E|-----------------------------------------------------|

Parte 2 de 7
E|-----------------------------------------------------|
B|------------------------------5----------------------|
G|-7-7-7-------7-7-7--------5-7------------------------|
D|-------5-5-5-------5-5-5-----------------------------|
A|-----------------------------------------------------|
E|-----------------------------------------------------|

Parte 3 de 7
E|-----------------------------------------------------|
B|------------------------------5---------8---------8--|
G|-5-5-5-------5-5-5--------5-7---4-5-4-5---4-5-4-5----|
D|-------5-5-5-------5-5-5-----------------------------|
A|-----------------------------------------------------|
E|-----------------------------------------------------|

Parte 4 de 7
E|-------------------------------------------12--------|
B|-13-13-13----------13-13-13----------13-15-----------|
G|----------12-12-12----------12-12-12-----------------|
D|-----------------------------------------------------|
A|-----------------------------------------------------|
E|-----------------------------------------------------|

Parte 5 de 7
E|-------------------------------------------12--------|
B|-15-15-15----------15-15-15----------13-15-----------|
G|----------12-12-12----------12-12-12-----------------|
D|-----------------------------------------------------|
A|-----------------------------------------------------|
E|-----------------------------------------------------|

Parte 6 de 7
E|-------------------------------------------12--------|
B|-13-13-13----------13-13-13----------13-15-----------|
G|----------12-12-12----------12-12-12-----------------|
D|-----------------------------------------------------|
A|-----------------------------------------------------|
E|-----------------------------------------------------|

Parte 7 de 7
E|-------------15--------------15----------------------|
B|-12-13-12-13-----12-13-12-13-------------------------|
G|-----------------------------------------------------|
D|-----------------------------------------------------|
A|-----------------------------------------------------|
E|-----------------------------------------------------|

[Pré-Refrão]
 
            F
Eu já coloquei
                   C
As minhas vestes brancas
       Am7
Estou só te esperando
 G      C/E    F
Vem, vamos dançar
   Am7  G    F
Mara___na_ta
   Am7  G
Mara___nata

C/E         F
Eu já coloquei
                   C
As minhas vestes brancas
       Am7
Estou só te esperando
 G      C/E    F
Vem, vamos dançar
   Am7  G    F
Mara___na_ta
   Am7  G
Mara___nata

[Refrão]

F
  Tem fogo nos olhos
G
  Eu não imaginava
Am7
    Que era lindo assim
Em 
   Que era lindo assim
F                
  Meu noivo esperado
G
  Eu abro a minha casa
Am7
    Pode morar aqui
Em 
   Pode morar aqui

F
  Tem fogo nos olhos
G
  Eu não imaginava
Am7
    Que era lindo assim
Em 
   Que era lindo assim
F                
  Meu noivo esperado
G
  Eu abro a minha casa
Am7
    Pode morar aqui
Em 
   Pode morar aqui

[Final] F  G  Am7  C/E
Página 1 / 1

Letras e título
Acordes e artista

resetar configurações
OK