Cifra Club

Black Friday Cifra Club

Pode Morar Aqui

Theo Rubia

Cifra: Principal (violão e guitarra)
tom: Eb (forma dos acordes no tom de C) Capotraste na 3ª casa
[Primeira Parte]

C                           Am
  Minhas lamparinas estão acessas
C
  Só estou esperando o barulho
          Am
Dos teus passos em direção à porta
C/E
    É só bater que eu
F                C       G
  Vou abrir pra você entrar
C/E
    É só bater que eu
F                C/E  F     G
  Vou abrir pra você    entrar

[Pré-Refrão]

            F
Eu já coloquei
                   C
As minhas vestes brancas
       Am
Estou só te esperando
 G      Em     F
Vem, vamos dançar
   Am  G  Em  F
Mara__na_ta
   Am  G
Mara__nata

[Primeira Parte]

C                           Am
  Minhas lamparinas estão acessas
C
  Só estou esperando o barulho
          Am
Dos teus passos em direção à porta
C/E
    É só bater que eu
F                C       G
  Vou abrir pra você entrar
C/E
    É só bater que eu
F                C/E  F     G
  Vou abrir pra você    entrar

[Pré-Refrão]
 
       C/E  F
Eu já coloquei
                   C
As minhas vestes brancas
       Am
Estou só te esperando
 G      Em     F
Vem, vamos dançar
   Am  G    F
Mara__na_ta
   Am  G
Mara__nata

C/E         F
Eu já coloquei
                   C
As minhas vestes brancas
       Am
Estou só te esperando
 G      Em     F
Vem, vamos dançar
   Am  G    F
Mara__na_ta
   Am  G
Mara__nata

( F  G  Am  Em )

[Refrão]

F
  Tem fogo nos olhos
G
  Eu não imaginava
Am
   Que era lindo assim
Em
   Que era lindo assim
F
  Meu noivo esperado
G
  Eu abro a minha casa
Am
   Pode morar aqui
Em
   Pode morar aqui

F
  Tem fogo nos olhos
G
  Eu não imaginava
Am
   Que era lindo assim
Em
   Que era lindo assim
F                Am
  Meu noivo esperado
G
  Eu abro a minha casa
Am
   Pode morar aqui
Em
   Pode morar aqui

[Solo] F  G  Am  Em
       F  G  Am  Em
       F  G  Am  Em
       F  G  Am  Em

[Tab - Solo]

Parte 1 de 16
E|----------------------------------------------------|
B|----------------------------------8-----------------|
G|-3/8-8-8--------8-8-8--------8-10-------------------|
D|---------8-8-8--------8-8-8-------------------------|
A|----------------------------------------------------|
E|----------------------------------------------------|

Parte 2 de 16
E|----------------------------------------------------|
B|--------------------------------------8-------------|
G|-10-10-10--------10-10-10--------8-10---------------|
D|----------8-8-8-----------8-8-8---------------------|
A|----------------------------------------------------|
E|----------------------------------------------------|

Parte 3 de 16
E|----------------------------------------------------|
B|--------------------------------8-------------------|
G|-8-8-8--------8-8-8--------8-10---------------------|
D|-------8-8-8--------8-8-8---------------------------|
A|----------------------------------------------------|
E|----------------------------------------------------|

Parte 4 de 16
E|----------------------------------------------------|
B|---------11----------11~----------------------------|
G|-7-8-7-8-----7-8-7-8--------------------------------|
D|----------------------------------------------------|
A|----------------------------------------------------|
E|----------------------------------------------------|

Parte 5 de 16
E|----------------------------------------------------|
B|----------------------------------8-----------------|
G|-3/8-8-8--------8-8-8--------8-10-------------------|
D|---------8-8-8--------8-8-8-------------------------|
A|----------------------------------------------------|
E|----------------------------------------------------|

Parte 6 de 16
E|----------------------------------------------------|
B|--------------------------------------8-------------|
G|-10-10-10--------10-10-10--------8-10---------------|
D|----------8-8-8-----------8-8-8---------------------|
A|----------------------------------------------------|
E|----------------------------------------------------|

Parte 7 de 16
E|----------------------------------------------------|
B|--------------------------------8-------------------|
G|-8-8-8--------8-8-8--------8-10---------------------|
D|-------8-8-8--------8-8-8---------------------------|
A|----------------------------------------------------|
E|----------------------------------------------------|

Parte 8 de 16
E|----------------------------------------------------|
B|---------11----------11~-11-11-11-11----------------|
G|-7-8-7-8-----7-8-7-8--------------------------------|
D|----------------------------------------------------|
A|----------------------------------------------------|
E|----------------------------------------------------|

Parte 9 de 16
E|---------------------------------------------15-----|
B|-16-16-16-----------16-16-16-----------16-18--------|
G|----------15-15-15-----------15-15-15---------------|
D|----------------------------------------------------|
A|----------------------------------------------------|
E|----------------------------------------------------|

Parte 10 de 16
E|---------------------------------------------15-----|
B|-18-18-18-----------18-18-18-----------16-18--------|
G|----------15-15-15-----------15-15-15---------------|
D|----------------------------------------------------|
A|----------------------------------------------------|
E|----------------------------------------------------|

Parte 11 de 16
E|---------------------------------------------15-----|
B|-16-16-16-----------16-16-16-----------16-18--------|
G|----------15-15-15-----------15-15-15---------------|
D|----------------------------------------------------|
A|----------------------------------------------------|
E|----------------------------------------------------|

Parte 12 de 16
E|-------------18--------------18~--------------------|
B|-15-16-15-16-----15-16-15-16------------------------|
G|----------------------------------------------------|
D|----------------------------------------------------|
A|----------------------------------------------------|
E|----------------------------------------------------|

Parte 13 de 16
E|---------------------------------------------15-----|
B|-16-16-16-----------16-16-16-----------16-18--------|
G|----------15-15-15-----------15-15-15---------------|
D|----------------------------------------------------|
A|----------------------------------------------------|
E|----------------------------------------------------|

Parte 14 de 16
E|---------------------------------------------15-----|
B|-18-18-18-----------18-18-18-----------16-18--------|
G|----------15-15-15-----------15-15-15---------------|
D|----------------------------------------------------|
A|----------------------------------------------------|
E|----------------------------------------------------|

Parte 15 de 16
E|---------------------------------------------15-----|
B|-16-16-16-----------16-16-16-----------16-18--------|
G|----------15-15-15-----------15-15-15---------------|
D|----------------------------------------------------|
A|----------------------------------------------------|
E|----------------------------------------------------|

Parte 16 de 16
E|-------------18--------------18/--------------------|
B|-15-16-15-16-----15-16-15-16------------------------|
G|----------------------------------------------------|
D|----------------------------------------------------|
A|----------------------------------------------------|
E|----------------------------------------------------|

[Pré-Refrão]
 
       C/E  F
Eu já coloquei
                   C
As minhas vestes brancas
       Am
Estou só te esperando
 G      Em     F
Vem, vamos dançar
   Am  G    F
Mara__na_ta
   Am  G
Mara__nata

C/E         F
Eu já coloquei
                   C
As minhas vestes brancas
       Am
Estou só te esperando
 G      Em     F
Vem, vamos dançar
   Am  G    F
Mara__na_ta
   Am  G
Mara__nata

[Refrão]

F
  Tem fogo nos olhos
G
  Eu não imaginava
Am
   Que era lindo assim
Em
   Que era lindo assim
F
  Meu noivo esperado
G
  Eu abro a minha casa
Am
   Pode morar aqui
Em
   Pode morar aqui

F
  Tem fogo nos olhos
G
  Eu não imaginava
Am
   Que era lindo assim
Em
   Que era lindo assim
F                Am
  Meu noivo esperado
G
  Eu abro a minha casa
Am
   Pode morar aqui
Em
   Pode morar aqui

[Final] F  G  Am  Em 
        F  G  Am  Em
00:00 / 00:00
Outros vídeos desta música
Repetir
Outros vídeos desta música
Composição de Theo Rubia
597.167 exibições
    • ½ Tom
    • A
    • Bb
    • B
    • C
    • Db
    • D
    • Eb
    • E
    • F
    • F#
    • G
    • Ab
  • Adicionar à lista

    0 comentários

    Ver todos os comentários

    Conseguiu tocar?

    47 Tocaram 32 Ainda não

    Grave um vídeo tocando Pode Morar Aqui e nos envie!

    Entre para oCifra Club PRO

    Tenha acesso a benefícios exclusivos no App e no Site

    • Chega de anúncios

    • Prioridade de compra em lançamentos

    • Mais recursos no app do Afinador

    • Atendimento Prioritário

    • Descontos nos produtos Cifra Club

    • Ajude a produzir mais conteúdo

    00:00 / 00:00

    Cifra Club Pro

    Aproveite o Cifra Club com benefícios exclusivos e sem anúncios
    Cifra Club Pro
    Aproveite o Cifra Club com benefícios exclusivos e sem anúncios
    OK