Cifra Club

Don't Believe a Word

Thin Lizzy

Cifra: Solo
exibições 1.682
Tom: C
Primeiro Solo:

E|------------------------------------------|
B|------------------------------------------|
G|-7b9...r7...----5h7p5h7p5h7p...-----------|
D|------------------------------------------|
A|------------------------------------------|
E|------------------------------------------|

E|------------------------------------------|
B|------5--8--------------------------------|
G|-7b9--------5--7b9----7b9----5~-7--7~-----|
D|------------------------------------------|
A|------------------------------------------|
E|------------------------------------------|

E|------------------------------------------|
B|-------------------15b17r15p13------------|
G|-12p0—14p0-14~--12-------------14-14~-12~\|
D|------------------------------------------|
A|------------------------------------------|
E|------------------------------------------|

E|---------------17-------------------------|
B|-----------17-----20b22--20b22-20~--------|
G|-17--19b21--------------------------------|
D|------------------------------------------|
A|------------------------------------------|
E|------------------------------------------|

E|------------------------------------------|
B|-20---20---20---20--20--------------------|
G|------------------------------------------|
D|------------------------------------------|
A|------------------------------------------|
E|------------------------------------------|

E|------------------------------------------|
B|-19-20-----18--17-------------------------|
G|--------17--------17--16--------19b21~~---|
D|-------------------------17---------------|
A|-----------------------------19-----------|
E|------------------------------------------|

E|-19b22~---19b22~---19b22~r----19-17-------|
B|------------------------------------------|
G|------------------------------------------|
D|------------------------------------------|
A|------------------------------------------|
E|------------------------------------------|

E|-------17-17-------17-17-------17-17------|
B|-20b22-------20b22-------20b22-------20b22|
G|------------------------------------------|
D|------------------------------------------|
A|------------------------------------------|
E|------------------------------------------|

E|-17-17------------------------------------|
B|-------20b22--17--------------------------|
G|------------------19b21--17--------17~----|
D|-----------------------------19-17--------|
A|------------------------------------------|
E|------------------------------------------|

E|------------------------------------------|
B|------------------------------------------|
G|-19--17--19b21r19p17----------------------|
D|---------------------19~------------------|
A|------------------------------------------|
E|------------------------------------------|

E|--------------17--------------------------|
B|-----------17----20b22--20b22--20-20-20-20|
G|-17--19b21--------------------------------|
D|------------------------------------------|
A|------------------------------------------|
E|------------------------------------------|

Segundo Solo:

E|------------------------------------------|
B|-8b10~---8b10r8p5-8p5---------------------|
G|----------------------7--5--5~------------|
D|---------------------------------7p5-7~---|
A|------------------------------------------|
E|------------------------------------------|

E|------------------------------------------|
B|------------------------------------------|
G|-5--7p5---5-7-7b9~~--7b9r7p5---5---7p5----|
D|--------7--------------------7---7-----7--|
A|------------------------------------------|
E|------------------------------------------|

E|------------------------------------------|
B|------------------------------------------|
G|--------5-7p5-----------------------------|
D|-5h7~---------7-5-7p5---------------------|
A|----------------------7-5\3---------------|
E|------------------------------5--3--5-----|

E|------------------------------------------|
B|------------------------------------------|
G|-----------------------------------5------|
D|----------5---7---7~--5------5--7---------|
A|-3----5/7---7---x---------7---------------|
E|----5-------------------------------------|

E|------------------5-8p7p7p5---5-----------|
B|----------------5-----------8---8p5---8p5-|
G|-7b9r7b9~~--7b9---------------------7-----|
D|------------------------------------------|
A|------------------------------------------|
E|------------------------------------------|

E|------------------------------------------|
B|-------------------8----------------------|
G|-7p5---7p5----7b9-----b9r7----------------|
D|-----7------------------------------------|
A|------------------------------------------|
E|------------------------------------------|

E|------------------------------------------|
B|------------------------------------------|
G|-5---7p5-------------5-----------5---7----|
D|---7-----7-5-7-5-7-5---7-5-7-5-7---7---7--|
A|------------------------------------------|
E|------------------------------------------|

E|------------------------------------------|
B|------------------------------------------|
G|-7b9---7b9r7p5---7p5------------5~--------|
D|---------------7-------7--5--7------------|
A|------------------------------------------|
E|------------------------------------------|

E|------------------------------------------|
B|------------------------------------------|
G|---7p5------------------------------------|
D|-7-----7-5--------------------------------|
A|------------7---5---3---0-----------------|
E|------------------------------------------|
Acordes para:
    Composição: Phil LynottColaboração e revisão:
    • Vinícius Dias

    0 comentários

      mostrar mais comentários

      Conseguiu tocar?

      0tocaram0ainda não

      Grave um vídeo tocando Don't Believe a Word e mande pra gente!

      00:00 / 00:00
      outros vídeos desta música
      repetirqualidadeautomática
      Outro vídeos desta música
        00:00 / 00:00
        automática
        Capítulos
        • Tocando a música
        • Dicas Iniciais / Equipamentos
        • Primeiro Solo - 85bpm
        • Primeiro Solo - 120bpm
        • Tocando o Segundo Solo
        • Segundo Solo - 85bpm
        • Segundo Solo - 120bpm
        • Encerramento
        • Ficha Técnica
        OK