Cifra Club

Honest James

Thurston Moore

Cifra: Principal (violão e guitarra)
Selo Cifra Club: esta cifra foi revisada para atender aos critérios oficiais da nossa Equipe de Qualidade.
tom: D
E|--0-0-----------------|
B|--0-0-----9-10-9----9-|
G|--0-0--10--------10---| RIFF A
D|--0-0-----------------|
A|--0-0-----------------|
E|--0-0-----------------|

E|--0-0---------------|
B|--0-0----0-2-0---0--| RIFF B
G|--0-0--2-------2----|
D|--4-4---------------|
A|--4-4---------------|
E|--------------------| optional low D

E|--0-0-0-0-0-0-0-0-0-0-0-0--0-0-0-0-0-0-0-0---0--0-0--|
B|--0-0-0-0-0-0-0-0-0-0-0-0--0-0-0-0-0-0-0-0---7--9-9--| RIFF C
G|--0-0-0-0-5-5-0-0-0-0-0-5--5-5-5-5-5-5-5-0---0--0-0--|
D|--5-5-5-5-5-5-5-5-5-5-5-5--5-5-5-5-5-5-5-5---7--9-9--| i didn't tab the timing very well but just listen
A|--5-5-5-5-5-5-5-5-5-5-5-5--5-5-5-5-5-5-5-5---0--0-0--| for the length of the B note on the F# string
E|----| w/ optional low D ----------------------0--0-0--|

E|--0------0-----0-----0-----0---0--0--0--0--0---12--12-12-12-9--0--|
B|--9-----12-----5-----4----14--14-14-14-12--9----0---0--0--0-0-12--|
G|--0------0-----0-----3-----0---0--0--0--0--0----0---0--0--0-0--0--| RIFF D
D|--9-----12-----5-----0-----0---0--0--0--0--0----0---0--0--0-0-10--|
A|--0--|----0-----0-----0-----0---0--0--0--0-11----0---0--0--0-0--0--|
E|--0------0-----0-----0-----0---0--0--0--0--0----0---0--0--0-0--0--|


A x 2
B x 2
A x 2
B x 2
C x 1
D x 1

repeat whole progression

E|--0--0-0-0--0-0-0-0-0-0-0-0-0-----0--0--0--0--0--0---14-12-14-12-14-12--9-7--9-7-9-7--0--|
B|--9--9-9-9-12-5-5-5-5-5-5-5-5---\14-14-14-14-12--9----0--0--0--0--0--0--0-0--0-0-0-0--7--|
G|--0--0-0-0--0-0-0-0-0-0-0-0-0-----0--0--0--0--0--0----0--0--0--0--0--0--0-0--0-0-0-0--0--| X 2
D|--9--9-9-9-12-5-5-5-5-5-5-5-5---\14-14-14-14-12--0---14-12-14-12-14-12--9-7--9-7-9-7--7--|
A|--0--|0-0-0--0-0-0-0-0-0-0-0-0-----0--0--0--0--0-11----0--0--0--0--0--0--0-0--0-0-0-0--0--|
E|--0--0-0-0--0-0-0-0-0-0-0-0-0-----0--0--0--0--0--0----0--0--0--0--0--0--0-0--0-0-0-0--0--|

drone an open D > verse

verse goes between open D chord and:

D|--0--|
|
A|--0--|
|
E|--0--|
|
A|--4--|
|
D|--4--|
|
D|-(0)-|

play the first 2 riffs of the song again for 'and i'll always love him' aaaand end.


E|------------------------------------------------|
THE SONIC YOUTH GUITAR/BASS TABA TUD  ARCHIVE:
E|------------------------------------------------|
Outros vídeos desta música
    11 exibições
      • ½ Tom
      • A
      • Bb
      • B
      • C
      • Db
      • D
      • Eb
      • E
      • F
      • F#
      • G
      • Ab
    • Adicionar à lista

    Afinação da cifra

    Afinador online

      0 comentários

      Ver todos os comentários

      Entre para o Cifra Club PRO

      Tenha acesso a benefícios exclusivos no App e no Site

      • Chega de anúncios

      • Mais recursos no app do Afinador

      • Atendimento Prioritário

      • Aumente seu limite de lista

      • Ajude a produzir mais conteúdo

      Cifra Club Pro

      Aproveite o Cifra Club com benefícios exclusivos e sem anúncios
      Cifra Club Pro
      Aproveite o Cifra Club com benefícios exclusivos e sem anúncios
      OK