Cifra Club

Creep

Tiago Iorc

Cifra: Principal (violão e guitarra)
tom: G
Dedilhado:
 G
|-------------------------------------|
|--0--------0---------1-------0-------|
|----0--------0---------0-------0-----|
|------0--------0---------0-------0---|
|-------------------------------------|
|--3--------3---------3-------3-------|

 B
|-------------------------------------|
|--4--------4--------5--------4-------|
|----4--------4--------4--------4-----|
|------4--------4--------4--------4---|
|--2--------2--------2-------2--------|
|-------------------------------------|

 C
|-------------------------------------|
|--5--------5--------6--------5-------|
|----5--------5--------5--------5-----|
|------5--------5--------5--------5---|
|--3--------3--------3--------3-------|
|-------------------------------------|

 Cm
|-------------------------------------|
|--4--------4--------4--------4-------|
|----5--------5--------5--------5-----|
|------5--------5--------5--------5---|
|--3--------3--------3--------3-------|
|-------------------------------------|

                     G
When you were here before
                             B
Couldn't look you in the eye
                    C
You're just like an angel
                     Cm
Your skin makes me cry


                  G
You float like a feather
                B
In a beautiful world
               C
I wish I was special
                    Cm
You're so fucking special


            G
But I'm a creep
       B
I'm a weirdo
                          C
What the hell am I doing here?
           Cm
I don't belong here


                    G
I don't care if it hurts
                  B
I wanna have control
                   C
I wanna a perfect body
                   Cm
I wanna a perfect soul


               G
I want you to notice
               B
When I'm not around
                    C
You're so fucking special
               Cm
I wish I was special


            G
But I'm a creep
       B
I'm a weirdo
                          C
What the hell am I doing here?
            Cm

I don't belong here


G B


  C
She's running
     Cm
She run


                    G
Whatever makes you happy
              B
Whatever you want
             C
So fucking special
               Cm
I wish I was special
00:00 / 00:00
Outros vídeos desta música
Repetir
Outros vídeos desta música
Compositor não encontrado.
Colaboração e revisão:
  • Pedro Longo
14.317 exibições
    • ½ Tom
    • A
    • Bb
    • B
    • C
    • Db
    • D
    • Eb
    • E
    • F
    • F#
    • G
    • Ab
  • Adicionar à lista

    0 comentários

    Ver todos os comentários

    Conseguiu tocar?

    4 Tocaram 0 Ainda não

    Grave um vídeo tocando Creep e nos envie!

    Entre para oCifra Club PRO

    Tenha acesso a benefícios exclusivos no App e no Site

    • Chega de anúncios

    • Prioridade de compra em lançamentos

    • Mais recursos no app do Afinador

    • Atendimento Prioritário

    • Descontos nos produtos Cifra Club

    • Ajude a produzir mais conteúdo

    00:00 / 00:00

    Cifra Club Pro

    Aproveite o Cifra Club com benefícios exclusivos e sem anúncios
    Cifra Club Pro
    Aproveite o Cifra Club com benefícios exclusivos e sem anúncios
    OK