Cifra Club

Do Que Você Tem Medo

Tiago Iorc

Cifra: Principal (violão e guitarra)
tom: Gm (forma dos acordes no tom de Am) Afinação: D G C F A D
[Intro] Am7  Bm7/F#

E|--0-0-0-3p0-0-0-0-0/5-5-5-5--|
B|--1-1-1-1---1-1-1-1/3-3-3-3--|
G|--0-0-0-0---0-0-0-0-0-0-0-0--|
D|--2-2-2-2---2-2-2-2/4-4-4-4--|
A|--0-0-0-0---0-0-0-0----------|
E|-----------------------------|
    ↓ ↓ ↑ ↓    ↓ ↑ ↓ ↑    ↑ ↓ ↑

[Primeira Parte]

Am7            Bm7/F#   Am7          Bm7/F#
Toda mentira é aflita e nasce do medo
Am7              Bm7/F#     Am7      Bm7/F#
   Que dor é essa que te deixa azedo?
Am7           Bm7/F#      Am7        Bm7/F#
Todo culpado tem culpa na ponta do dedo
Am7                Bm7/F#    Am7     Bm7/F#
   Quem pode apontar, que pobre, tá preso!

[Pré-Refrão]

F            G      F          G
 E essa ganância fria, será que te sacia?
F         G                A4  A
 Muito pouco e tudo leva à nada
F        G       F            G
 A crueldade tonta, as falsas notícias
F           G
 Só vão nos apartar

[Refrão]

Dm/A                             A5
    Quem planta o ódio escolhe o me_do
G                  Am7
  Quem é que vai sentir?
Dm/A                         A5
    Se a rua escorre sangue ne_gro
G                    Am7
    Quem é que vai fingir? Iêêh

( F  G  F  G )
( F  G  A4  A )

  Am7             Bm7/F#
E|--------3p0---------5-5----| 2x
B|----1--------1--------3-3--|
G|------0--------0------0----|
D|-----------------4----4----|
A|-0-------------------------|
E|---------------------------|

[Segunda-Parte]

Am7              Bm7/F#        Am7    Bm7/F#
  Labirinto de heranças, genes ancestrais
Am7              Bm7/F#  Am7      Bm7/F#
  O amor extinto já não tinge mais
Am7    Bm7/F#  Am7  Bm7/F#
  Iererê_ê      ierê_ê
  Am7             Bm7/F#  Am7    Bm7/F#
O canto ainda ecoa dentro de você

[Pré-Refrão]

F            G      F          G
 E essa ganância fria, será que te sacia?
F         G                A4  A
 Muito pouco e tudo leva à nada
F        G       F            G
 A crueldade tonta, as falsas notícias
F           G
 Só vão nos apartar

[Refrão]

Dm/A                             A5
    Quem planta o ódio escolhe o me_do
G                 Am7
  Quem é que vai sentir?
Dm/A                         A5
    Se a rua escorre sangue ne_gro
G                 Am7
  Quem é que vai fingir?

Dm/A                            A5
    Ah quem planta o ódio escolhe o me_do
G                 Am7
  Quem é que vai sentir?
Dm/A                         A5
    Se a rua escorre sangue ne_gro
G                 Am7
  Quem é que vai fingir? Iêêh

[Final]

E|----------------------------------|
B|-------------------5--------------|
G|-----5---5/4-0-------x--7-5-------|
D|-------3---------x----------9-----|
A|---3------------------------------|
E|-1-------------3------------------|

E|----------------------------------|
B|-------------------5--------------|
G|-----5---5/4-0-------x--7-5---5-7-|
D|-------3---------x----------9-----|
A|---3------------------------------|
E|-1-------------3------------------|

E|----------------------------------|
B|-------------------5--------------|
G|-----5---5/4-0-------x--7-5-------|
D|-------3---------x----------9-----|
A|---3------------------------------|
E|-1-------------3------------------|

E|-0--0-0-x-------------------------|
B|-6--6-6-x-------------------------|
G|-7--7-7-x--6h7p6------------------|
D|-7--7-7-x--------7----------------|
A|-0--0-0-x----------7-5-4-0--------|
E|----------------------------------|
   ↓  ↓ ↑ ↓

E|----------------------------------|
B|-------------------5--------------|
G|-----5---5/4-0-------x--7-5-------|
D|-------3---------x----------9-----|
A|---3------------------------------|
E|-1-------------3------------------|

E|----------------------------------|
B|-------------------5--------------|
G|-----5---5/4-0-------x--7-5---5-7-|
D|-------3---------x----------9-----|
A|---3------------------------------|
E|-1-------------3------------------|

E|--------------------------------0-|
B|-------------------5------------6-|
G|-----5---5/4-0-------x--7-5-----7-|
D|-------3---------x----------9---7-|
A|---3----------------------------0-|
E|-1-------------3------------------|
                                  ↓
00:00 / 00:00
Outros vídeos desta música
Repetir
Outros vídeos desta música
Composição de Tiago Iorc
Colaboração e revisão:
  • Vinícius Mangeth
1.329 exibições
    • ½ Tom
    • Am
    • Bbm
    • Bm
    • Cm
    • C#m
    • Dm
    • Ebm
    • Em
    • Fm
    • F#m
    • Gm
    • G#m
  • Adicionar à lista

    0 comentários

    Ver todos os comentários

    Conseguiu tocar?

    1 Tocaram 1 Ainda não

    Grave um vídeo tocando Do Que Você Tem Medo e nos envie!

    Entre para oCifra Club PRO

    Tenha acesso a benefícios exclusivos no App e no Site

    • Chega de anúncios

    • Prioridade de compra em lançamentos

    • Mais recursos no app do Afinador

    • Atendimento Prioritário

    • Descontos nos produtos Cifra Club

    • Ajude a produzir mais conteúdo

    00:00 / 00:00

    Cifra Club Pro

    Aproveite o Cifra Club com benefícios exclusivos e sem anúncios
    Cifra Club Pro
    Aproveite o Cifra Club com benefícios exclusivos e sem anúncios
    OK