Cifra Club

Masculinidade

Tiago Iorc

Cifra: Principal (violão e guitarra)
tom: Ebm
Afinação: Eb A D G B E

[Intro]

[Tab - Acordes]

   Ebm        Bb           B         B
E|------------------------------------------|
B|------------------------------------------|
G|--3----------3-----------4---------4------|
D|--4----------3-----------4---------4------|
A|--6----------------------6---------6------|
E|-------------7-----------8---------8------|

Ebm
Ânima, Ânima, Ânima
Bb
Ânima, Ânima, Ânima
B
Ânima, Ânima, Ânima

Ânima, Ânima, Ânima
Ebm
Ânima, Ânima, Ânima

[Primeira Parte]

Ebm
    Eu tava numa de ficar sumido
Bb
   Dinheiro, fama, tudo resolvido
B
  Fingi que não, mas, na verdade, eu ligo

Eu me achava mó legal

Ebm
    Queria uma unanimidade
Bb
   Eu quis provar a minha virilidade
B
  Eu duvidei da minha validade

Na insanidade virtual

[Segunda Parte]

[Tab - Acordes]

Parte 1 De 2
    Ebm    Bbm   B7M
E|------------------------------------------|
B|--7------6--------------------------------|
G|---------6--6--8--------------------------|
D|--4------------8--------------------------|
A|--6------------9--------------------------|
E|---------7-----8--------------------------|

Parte 2 de 2
    Ebm    Bbm   B7M
E|------------------------------------------|
B|--7--4---6--------------------------------|
G|---------6--6--8--------------------------|
D|--4------------8--------------------------|
A|--6------------9--------------------------|
E|---------8-----9--------------------------|

Ebm                                Bbm
    Eu cuido pra não ser muito sensível
                                     B7M
Homem não chora, homem não isso e aquilo

Aprendi a ser indestrutível

Eu não sou real
Ebm                                Bbm
    Conversando com os meus amigos
                           B7M
Eu entendi que não é só comigo

Calar fragilidade é castigo

Eu sou real

[Refrão] Cm7  Bb/D  Ab2  G7(5+)
         Cm7  Bb/D  Gm7  Fm7
         F#7M(6)  G7(9+)  F#7M

[Tab - Acordes]

Parte 1 de 2
    Cm7   Bb/D  Ab2   G7(5+)
E|------------------------------------------|
B|--4-----3-----------4---------------------|
G|--3-----3-----3-----4---------------------|
D|--5-----3-----6-----3---------------------|
A|--3-----5---------------------------------|
E|--------------5-----4---------------------|

Parte 2 de 2
   Cm7  Cm7 Bb/D Gm7 Fm7 F#7M(6) G7(9+) F#7M
E|--3---11--10-----------11----------------|
B|--4---11--11---11--9---11------11-----11-|
G|--3---12--10---10--8---10------10-----10-|
D|------10--12-------------------9------8--|
A|--3------------10--8---9-------10-----9--|
E|-----------------------------------------|

Cm7                  Bb/D
    Cuida, meu irmão
         Ab2
Do teu emocional
           G7(5+)
Cuida do que é real

Cm7               Bb/D
    Cuida, meu irmão
       Gm7  Fm7
Do teu e___mocional
    F#7M(6)  G7(9+)  F#7M
Cuida do   que é re__al

[Ponte] Ebm/Bb  Bbm  Bbm  G#m

[Tab - Acordes]

    Ebm/Bb Bbm  Bbm  G#m
E|--14-----13---9----11------------------------|
B|--16-----14---11---8---------9-----9/--------|
G|--15-----15--------9------10---11------------|
D|--------------8----11------------------------|
A|---------------------------------------------|
E|---------------------------------------------|

[Terceira Parte]

      Ebm
Masculinidade frágil, coisa de menino
Bb
   Eu fui profano e sexo é divino
B7M
    Da minha intimidade, fui um assassino

Que merda!

          Ebm
Quando criança, era chamado de bicha
                       Bb
Como se fosse um xingamento

Que mais coisa esquisita
        B7M
Aprendi     que era errado ser sensível

Quanta inocência

Ebm
    Eu tive medo do meu feminino
Bb
   Eu me tornei um homem reprimido
B7M
    Meio sem alma, meio adormecido

Um ato fálico, autodestrutivo

Ebm
    No auge e me sentindo deprimido
Bb
   Me vi traindo por ter me traído
B7M
    Eu fui covarde, eu fui abusivo

Pensei ser forte, mas eu só fugi

Ebm
    E caí na pornografia
Bb
   Essa porra só vicia
B7M
    Te suga a alma, te esvazia

E quando vê passou o dia

Ebm
    E você pensa que devia
Bb
   Ter outro corpo, outra pica
B7M
    A ansiedade vem e fica

Caralho, isso não é vida!

[Refrão] Cm7  Bb/D  Ab2  G7(5+)
         Cm7  Bb/D  Gm7  Fm7
         F#7M(6)  G7(9+)

[Tab - Acordes]

Parte 1 de 2
    Cm7   Bb/D  Ab2   G7(5+)
E|------------------------------------------|
B|--4-----3-----------4---------------------|
G|--3-----3-----3-----4---------------------|
D|--5-----3-----6-----3---------------------|
A|--3-----5---------------------------------|
E|--------------5-----4---------------------|

Parte 2 de 2
   Cm7  Cm7 Bb/D Gm7 Fm7 F#7M(6) G7(9+)
E|--3---11--10-----------11----------------|
B|--4---11--11---11--9---11------11--------|
G|--3---12--10---10--8---10------10--------|
D|------10--12-------------------9---------|
A|--3------------10--8---9-------10--------|
E|-----------------------------------------|

Cm7                  Bb/D
    Cuida, meu irmão
         Ab2
Do teu emocional
           G7(5+)
Cuida do que é real

Cm7               Bb/D
    Cuida, meu irmão
       Gm7  Fm7
Do teu e___mocional
    F#7M(6)  G7(9+)
Cuida  do  que é real

[Quarta Parte]

[Tab - Acordes]

    Ebm       Db         Gb6       Gb6
E|------------------------------------------|
B|------------------------------------------|
G|---------------------------------3---1----| (4x)
D|--4----4----3----3-----4-----4---4-4------|
A|----6-------4--4----------6------6--------|
E|--0--------------------3---------3--------|

Ebm
    Meu pai foi minha referência de homem forte
Db
   Trabalhador, generoso, decidido
Gb6
    Mas ele sempre teve dificuldade de falar

O pai do meu pai também não soube se expressar

Ebm
    Por esses homens é preciso chorar

E perdoar
Db
   Essa dor guardada
      Gb6
Até agora, enquanto escrevo

Me assombra se o que eu digo é o que eu devo

           Ebm
Um eco de medo

O que será que vão dizer?
         Db
O que será que vão pensar?
                   Gb6
A rejeição ensina cedo

Seja bem bonzinho ou então vão te cancelar

               Ebm
Que complexo é esse?

Mamãe, é você?
                 Db
Me iludi nessa imagem, tentei me esconder
                Gb6
Eu só posso ser esse Tiago

Cheio de virtude, cheio de estrago
                        Ebm
Que afago crescer, aceitar

[Quinta Parte]

[Tab - Acordes - Violão 1]

E|------------------------------------------|
B|------------------------------------------|
G|---------------------------------3---1----|
D|--4----4----3----3-----4-----4---4-4------|
A|----6-------4--4----------6------6--------|
E|--0--------------------3---------3--------|

[Variação]

E|------------------------------------------|
B|------------------------------------------|
G|---------------------------------3---1----| (3x)
D|--4----4----3----3-----4-----4---4-4------|
A|----6-------4--4-4--------6------6--------|
E|--0---------5----5-----3---------3--------|

[Tab - Acordes - Violão 2]

E|--11---9----6-----4-----------------------|
B|--11---11---7-----3-----------------------|
G|--11---10---8-----4-----------------------|
D|--13---11---8-----3-----------------------|
A|------------------------------------------|
E|------------------------------------------|

Ai, ai
                   Db
Esse homem macho, machucado
               Gb6
Esse homem violento, homem violado

Homem sem amor, homem mal amado
      Ebm
Precisamos nos responsabilizar, meus amigos
   Db
A gente cria um mundo extremo e opressivo
     Gb6
Diz aí, se não estamos todos loucos

Por um abraço

Que cansaço!

    Ebm
Cuidado com o excesso de orgulho
    Db
Cuidado com o complexo de superioridade, mas
Gb6
    Cuidado com desculpa pra tudo

Cuidado com viver na eterna infantilidade

    Ebm
Cuidado com padrões radicais
    Db
Cuidado com absurdos normais
    Gb6
Cuidado com olhar só pro céu

E fechar o olho pro inferno que a gente mesmo é capaz

[Refrão] Cm7  Bb/D Ab2  G#m7  Bb6(5-)
         Cm7  Cm7 Bb/D  Gm7
         Fm7 F#7M(6) G7(9+)

[Tab - Acordes]

Parte 1 de 2
    Cm7   Bb/D  Ab2   G#m7  Bb6(5-)
E|------------------------------------------|
B|--4-----3-----------4-----6---------------|
G|--3-----3-----3-----4-----8---------------|
D|--5-----3-----6-----4-----6---------------|
A|--3-----5---------------------------------|
E|--------------5-----5-----7---------------|

Parte 2 de 2
   Cm7  Cm7 Bb/D Gm7 Fm7 F#7M(6) G7(9+)
E|--3---11--10-----------11----------------|
B|--4---11--11---11--9---11------11--------|
G|--3---12--10---10--8---10------10--------|
D|------10--12-------------------9---------|
A|--3------------10--8---9-------10--------|
E|-----------------------------------------|

Cm7                  Bb/D
    Cuida, meu irmão
         Ab2
Do teu emocional
           G7(5+)
Cuida do que é real

Cm7               Bb/D
    Cuida, meu irmão
       Gm7  Fm7
Do teu e___mocional
    F#7M(6)  G7(9+)
Cuida  do  que é real

[Sexta Parte]

Minha alma é profunda e se a foga no raso

Minha alma é profunda e se a foga no raso

Minha alma é profunda e se a foga no raso

         Ebm
Eu fico zonzo, fico triste
             Bb
Fico pouco, fico escroto
                                  B7M
Eu sigo à risca o que é ser homem

Isso não existe, a vida insiste

O tempo todo que eu repense

O que é ser homem?
      Ebm
O que é ser homem?

O que é ser homem?
             Bb
O que é ser homem?

O que é ser homem?
    B7M
Há tantos e tantos

E tantos e tantos e tantos

Possíveis homens

       Ebm       Bb
Homem real e não ideal
                              B7M
Ser homem por querer se aprender, todo dia

Dominar a si mesmo

Apesar de qualquer fobia

[Final]

    Ebm7(9)
Respeito

Tem que ter peito
         Bbm7
Tem que ter culhão pra amar direito
       B7M
Vou dizer que não?
                               B6
Esperando sentado por salvação?
        Ebm7(9)
Conexão,        empatia, verdade
           Bbm7
Divino propósito: Responsabilidade
    B7M
Deitar a cabeça no travesseiro e sentir paz
               B6
Por ter vivido    um dia honesto

Ebm7(9)
        Ah!
Bbm7                                 B7M
     Ser homem exige muito mais do que coragem
                                B6
Muito mais do que masculinidade
                   Ebm7(9)         Bbm7
Ser homem exige escolha, meu irmão
     B7M
E aí?
00:00 / 00:00
Outros vídeos desta música
Repetir
Outros vídeos desta música
Composição de Lux Ferreira / Mateus Asato / Tiago Iorc / Tomás Tróia
Colaboração e revisão:
  • Gustavo Zanandrez
2.600 exibições
    • ½ Tom
    • Am
    • Bbm
    • Bm
    • Cm
    • C#m
    • Dm
    • Ebm
    • Em
    • Fm
    • F#m
    • Gm
    • G#m
  • Adicionar à lista

    0 comentários

    Ver todos os comentários

    Conseguiu tocar?

    4 Tocaram 1 Ainda não

    Grave um vídeo tocando Masculinidade e nos envie!

    Entre para oCifra Club PRO

    Tenha acesso a benefícios exclusivos no App e no Site

    • Chega de anúncios

    • Prioridade de compra em lançamentos

    • Mais recursos no app do Afinador

    • Atendimento Prioritário

    • Descontos nos produtos Cifra Club

    • Ajude a produzir mais conteúdo

    00:00 / 00:00

    Cifra Club Pro

    Aproveite o Cifra Club com benefícios exclusivos e sem anúncios
    Cifra Club Pro
    Aproveite o Cifra Club com benefícios exclusivos e sem anúncios
    OK