Cifra Club

Aprenda

Mil Razões

Tiago Iorc

Cifra: Principal (violão e guitarra)
Tom: A (forma dos acordes no tom de G) Capotraste na 2ª casa
[Intro e Primeira Parte]

            G
E|-----------------------------------------------|
B|-----------------------------------------------|
G|----------------0-------------------0----------|
D|-------0-2-0------0---------0-2-0-----0--------|
A|---0h2-------2----------0h2------2-------------|
E|-3--------------------3------------------------|

         C7M
E|-----------------------------------------------|
B|-----------------0-------------------0---------|
G|--------0-2-0-----0----------0-2-0-----2p0-----|
D|----0h2--------2---------0h2---------------2--0|
A|--3--------------------3-------------3---------|
E|-----------------------------------------------|

[Primeira Parte]

G
  Se você chega tudo incendeia
C7M
  Põe tudo em jogo tudo clareia oh-oh
G
  O sal no afago o tris de tristeza
C7M
  O sexo fogo sem gentileza oh-oh
G
  E o dia em que lhe vi chorar não que lembrar precise
C7M
  O mar represa não tem reprise oh-oh
G
  O cio macio que dói e aonde você foi
C7M
  A teimosia a poesia

[Refrão] C7M   D6(11)  G6/B

          C7M             D6(11)
E|---------------------------------------|
B|-----0------0---------0-------0--------|
G|-------0-----0---------0------0--------|
D|--2------2------2--4-------0-------0---|
A|--3------3------3--5-------2-------2---|
E|--3------3------3--5-------0-------0---|

          C7M              B7
E|----------------------2-------2-----------------------------------|
B|-----0------0---------0-------0-------------------------0--0--0---|
G|-------0-----0---------2------2----------------2--2--2--2--2--2---|
D|--2------2------2--1-------1-------1--1--1--1--1--1--1--1--1--1---|
A|--3------3------3--2-------2-------2--2--2--2--2--2--2--2--2--2---|
E|--3------3------3-------------------------------------------------|

C7M                          D6(11)        G6/B
   Posso lhe dar mais mil razões pra te querer
C7M                            D6(11)   G6/B
   Coisas que eu já nem sei o no......me
C7M                       D6(11)     G6/B
   Posso compor mais cem cancões de amor... pra quê?
C7M                        G6/B
   Se quando eu canto você some

[Segunda Parte] G   G6/E   C7M  A7(9)

G         G6/E     G   G6/E
   O doce instinto Deus indeciso
C7M      A7(9)    C7M      A7(9)
   Eu indefeso no teu sorriso oh-oh
G          G6/E     G        G6/E
   O gosto atípico e o jeito sério
C7M           A7(9)   C7M       A7(9)
   Teu rosto místico mais um mistério
G        G6/E                 G      G6/E
   E o brilho que de ti reluz E a tanto sóis seduz
C7M   A7(9)  C7M     A7(9)
   É realeza Não tem deslize oh-oh
G           G6/E            G               G6/E
   Pornôs, por nós dois nús e os clássicos céus azuis
C7M          A7(9)
   Os tantos "ui ui uis"
C7M 
   Os cantos doidos e ruídos que pra cada céu que é seu eu já compus

[Refrão]

C7M                          D6(11)        G6/B
   Posso lhe dar mais mil razões pra te querer
C7M                            D6(11)   G6/B
   Coisas que eu já nem sei o no......me
C7M                       D6(11)     G6/B
   Posso compor mais cem cancões de amor... pra quê?
C7M                        B7
   Se quando eu canto você some

C7M                          D6(11)        G6/B
   Posso lhe dar mais mil razões pra te querer
C7M                            D6(11)   G6/B
   Coisas que eu já nem sei o no......me
C7M                       D6(11)     G6/B
   Posso compor mais cem cancões de amor... pra quê?
C7M                        B7
   Se quando eu canto você some

[Final] G   G6/E   C7M  A7(9)
        G   G6/E   C7M  A7(9)
        G   G6/E   C7M  A7(9)
Composição de Dani Black / Tiago Iorc 154.966 exibições
    • ½ Tom
    • A
    • Bb
    • B
    • C
    • Db
    • D
    • Eb
    • E
    • F
    • F#
    • G
    • Ab
  • Adicionar à lista

    0 comentários

    Mostrar mais comentários

    Conseguiu tocar?

    15 Tocaram 4 Ainda não

    Grave um vídeo tocando Mil Razões e mande pra gente!

    00:00 / 00:00
    outros vídeos desta música
    repetir qualidade Automático
    Outros vídeos desta música
    00:00 / 00:00
    Automático
    OK