Cifra Club

Skin Deep

Tiago Iorc

Cifra: Principal (violão e guitarra)
tom: Bb
[Intro] Bb7M  Bb7M  Bb7M  Bb7M
        Am  Am  Bb7M  Bb7M  Am  Am

 Bb7M
E|------------------------------|
B|-------3------3------3------3-|
G|---2------2------2------2-----|
D|-----0------0------0------0---|
A|-1----------------------------|
E|------------------------------|

  Am
E|-------0------0------0------0-|
B|---1------1------1------1-----|
G|-----2------2------2------2---|
D|------------------------------|
A|-0----------------------------|
E|------------------------------|

[Primeira Parte]

   Bb7M
She always had a pretty face
                          Am
What a pretty face she's got
  Bb7M
In awe, the years she spent awake
                            Am
Would've left a trace, but not

   Bb7M
She always had a pretty face
                          Am
What a pretty face she's got
  Bb7M
In awe, the years she spent awake
                            Am
Would've left a trace, but not

[Segunda Parte] 

( Bb7M  C  Bb7M  C9 )

 Bb7M
E|------------------------------|
B|-------3------3------3------3-|
G|---2------2------2------2-----|
D|-----0------0------0------0---|
A|-1----------------------------|
E|------------------------------|

   C
E|------------------------------|
B|-------1------1------1------1-|
G|---0------0------0------0-----|
D|-----2------2------2------2---|
A|-3----------------------------|
E|------------------------------|

 Bb7M
E|------------------------------|
B|-------3------3------3------3-|
G|---2------2------2------2-----|
D|-----0------0------0------0---|
A|-1----------------------------|
E|------------------------------|

  C9
E|------------------------x-|
B|------------------------x-|
G|-------0-----0---0~-----x-|
D|-----0-----0-----0~-----x-|
A|---7-----7-----7--------x-|
E|-8----------------------x-|

   Bb7M
She always had a pretty face
                          Am
What a pretty face she's got
 Bb7M
Apologies from place to place
                         Am
Looks are never good enough

   Bb7M
She always had a pretty face
                          C
Such a pretty face, but not
 Bb7M
Emotion spills on empty days
C                           C9
 Such a pretty face is lost, lost

( Ab  Eb  Fm  C  Bbm  Ab  Eb )
( Ab  Eb  Fm  C  Bbm  Ab  Eb )
( Bb7M  C )

   Ab           Eb
E|-------------------------|
B|------4------------4-----|
G|-5------5-----3------3---|
D|---6------6-----5------5-|
A|-6------------6----------|
E|-------------------------|

   Fm           C
E|-------------------------|
B|------1------------1-----|
G|-1------1-----0------0---|
D|---3------3-----2------2-|
A|-3------------3----------|
E|-------------------------|

  Bbm           Ab
E|-------------------------|
B|------2------------4-----|
G|-3------3-----5------5---|
D|---3------3-----6------6-|
A|-1------------6----------|
E|-------------------------|

  Eb
E|-----------|
B|-4---------|
G|-3---------|
D|-5---------|
A|-6---------|
E|-----------|

Ab    Eb
Is it not
  Fm     C
Intentional?
     Bbm      Ab      Eb
The beautiful lies we see

    Ab    Eb
Are seasonal
   Fm     C
Unbreakable
Bbm        Ab      Eb
Neither of us will be

         Bb7M  C
Let it be

[Terceira Parte]

   Bb7M
She always had a pretty face
C
 Such a pretty face
  Bb7M
In awe, the years she spent awake
C
 Took her pretty face
  Bb7M
In awe, the years she spent awake
C                             Bb7M
 Would've left a trace, but not
C                             Bb7M
 Would've left a trace, but not
C                             Bb7M
 Would've left a trace, but not
00:00 / 00:00
Outros vídeos desta música
Repetir
Outros vídeos desta música
Composição de Tiago Iorc
Colaboração e revisão:
  • Vinícius Mangeth
229 exibições
    • ½ Tom
    • A
    • Bb
    • B
    • C
    • Db
    • D
    • Eb
    • E
    • F
    • F#
    • G
    • Ab
  • Adicionar à lista

    0 comentários

    Ver todos os comentários

    Conseguiu tocar?

    1 Tocaram 0 Ainda não

    Grave um vídeo tocando Skin Deep e nos envie!

    Entre para oCifra Club PRO

    Tenha acesso a benefícios exclusivos no App e no Site

    • Chega de anúncios

    • Prioridade de compra em lançamentos

    • Mais recursos no app do Afinador

    • Atendimento Prioritário

    • Descontos nos produtos Cifra Club

    • Ajude a produzir mais conteúdo

    00:00 / 00:00

    Cifra Club Pro

    Aproveite o Cifra Club com benefícios exclusivos e sem anúncios
    Cifra Club Pro
    Aproveite o Cifra Club com benefícios exclusivos e sem anúncios
    OK