Notificações Amigos pendentes

      Tianastácia

      Cabrobró

      148.379 exibições
      Tom: C
      (intro)
      
      É o tianastácia ae!
      
      ( G5 A#5 A5 ) (8X)
      ( A5 A#5 G5 A#5 A5 ) (3x)
      
      (parte 1)
      
      A#5 A5     F5    G5    (Pausa)
               Ouvi falar,
      Loucura vem de berço
      Camarão bom é nascido em Cabrobró
      
      (lick 1)
      
      E|-----------------------|
      B|-----------------------|
      G|----3-5-5b7r5p3p0------|
      D|--5---------------0----|
      A|-----------------------|
      E|-----------------------|
      
      
           G5
      A bebida é coisa que vira cirrose
      E o cérebro derrete quando alguém cheira loló
      
      Meu pai falava pra eu andar
      Sempre na linha
      Só transar com camisinha
      Pra as ''mulhé'' não engravidar
                G5
      Lança perfume sustentava meus neurônios
      Descobri que Steinhaeger com cerveja
      Faz pirar
      
      (refrão)
                C5
      Só não vacilo bro
      
                         G * A# * A * (2x)
      A natureza é implacável
                 D5
      Se o cara nasce mané
        C5
      Cresce mané
       G5
      Morre mané, mané (2x)
      
      (repete tudo 2x)
      
      (refrão final)
                C5
      Só não vacilo bro
      
      A natureza é implacável
      
                 D5
      Se o cara nasce mané
        C5
      Cresce mané
       G5
      Morre mané, mané (4x)
      
      (solo)
      
      E|----------------------------------------------------|
      B|----------------------------------------------------|
      G|----------------------------------------------------|
      D|-15h17-15h17-15h17-15h17-15h17-15h17-15h17-17-------|
      A|----------------------------------------------------|
      E|----------------------------------------------------|
      
      
      E|----------------------------------------------------|
      B|----------------------------------------------------|
      G|-15-------15-------15----15-17b18-17b18-17b18-------
      D|----17-17----17-17----17----------------------------|
      A|----------------------------------------------------|
      E|----------------------------------------------------|
      
      
      E|-------------------------|
      B|-------------------------|
      G|-------------------------|
      D|-17b19r17p15--17/19~-----|
      A|-------------------------|
      E|-------------------------|
      
      
      E|-----------------------------------------|
      B|----------------------------22-----------|
      G|----17-19-19b21-19b21-19b21----21r19~----|
      D|-19--------------------------------------|
      A|-----------------------------------------|
      E|-----------------------------------------|
      
      
      E|-------3-6-3-----------------|
      B|-----3-------6-3-------------|
      G|---3-------------5b7r5p3-----|
      D|-------------------------5---|
      A|-6---------------------------|
      E|-----------------------------|
      
      
      (* algumas variações pode ser feitas quando a música repete)
      
      (variação 1: No lugar do lick 1, tocar)
      
      E|---------------------------|
      B|---------------------------|
      G|---------------------------|
      D|---------------------------|
      A|---------------5(...)------|
      E|---0-0-1-1-2-2-3(...)------|
      
      
      (variação 2: Tocar na segunda estrofe, fazendo o papel do baixo)
      (Se estiver tocando com banda, o baixo fará essa parte)
      
      
      E|----------------------------------------------------|
      B|----------------------------------------------------|
      G|----------------------------------------------------|
      D|---5-3--------5-3-----------------------------------|
      A|-------5----------5------------------5(...)---------|
      E|-3-------3--3-------3-0-0-1-2/5-0-0--3(...)---------|
      
          pm      pm pm

      Comentários 3

      140 .
      140 cancelar

      conseguiu tocar?

      covers

      Grave um vídeo tocando Cabrobró e mande pra gente!

      Ex.: http://www.youtube.com/watch?v=0IvSvIwGdwk
      ver covers de outras músicas »
      0:00 / 0:00
      1 versão de violão dificuldade exibições contribuição e correção
      1 versão de guitarra dificuldade exibições contribuição e correção
      1 versão de cavaco dificuldade exibições contribuição e correção
      1 versão de teclado dificuldade exibições contribuição e correção
      2 versões de baixo exibições contribuição e correção
      1 versão de Guitar Proformatodownloadscontribuição
      play/pausefechar subir/descer velocidade
      6ª corda E5ª corda A4ª corda D3ª corda G2ª corda B1ª corda E
        acordes
        publicidade
        fechar
        ok