Cifra Club

Amargurado

Tião Carreiro e Pardinho

Cifra: Principal
exibições 729.151
Tom: C
E|--3-1-0--------------------------------------------0-1-3-5-5-5-5--|
B|--------3-1----------------------------------------1-3-5-6-6-6-6--|
G|-----------1-1-1-1-0-1-3-3-3-3-1----------------------------------|
D|------------1-1-1-1-0-1-3-3-3-3-1---------------------------------|
A|--------------------------------  5-3-5-5-------------------------|
E|------------------------------------------------------------------|

E|--8-5-7-7-7-7-10/12-10-8---------------------8--|
B|--6-6-8-8-8-8--------------8--------------------|
G|--------------------------------8-----8--------|
D|------------------------------------8-----------|
A|------------------------------------------------|
E|------------------------------------------------|

[Solo]

E|-12-10--8-7-5-5--5--5--5--4---5/7--7--7--5-3-1-1/3-3---|
B|-13-12-10-8-6-6--6--6--6--5---6/8--8--8--6-5-3-3/5-5---|
D|--------------------------------------------------------|
A|--------------------------------------------------------|
E|--------------------------------------------------------|

E|---------5-------7-6-5--5-4-5--8-5-7-7--5-7--10/12-10-8-|
B|-5/8-7-8---8-7-8-------------­--------------------------­-|
D|--------------------------------------------------------|
A|--------------------------------------------------------|
E|--------------------------------------------------------|

E|---------------|
B|---/8----------|
G|------/9-------|
D|---------/10---|
A|---------------|
E|---------------|

C
O que é feito daqueles beijos que eu te dei
                                                          G
Daquele amor cheio de ilusão que foi a razão do nosso querer
          Dm                            G
Pra onde foram tantas promessas que me fizeste
             F                  G               C
Não se importando que o nosso amor viesse a morrer

 C
Talvez com outro estejas vivendo bem mais feliz
            C7                            F
Dizendo ainda que nunca houve amor entre nós
                           G                 C
Pois tu sonhavas com a riqueza que eu nunca tive
             Am            Dm             G                   C
E se ao meu lado muito sofreste, o meu desejo é que vivas melhor

         G             F              C
Vai com Deus, sejas feliz com o teu amado
                     G               F             C
Eis aqui um peito magoado que muito sofre por te amar
         F                              G
Eu só desejo que a boa sorte siga teus passos
                       F
Mas se tiveres algum fracasso
           G                C
Creias que ainda te posso ajudar

     G           F               C
Vai com Deus, sejas feliz com o teu amado
                     G               F             C
Eis aqui um peito magoado que muito sofre por te amar
         F                              G
Eu só desejo que a boa sorte siga teus passos
                       F
Mas se tiveres algum fracasso
           G                  C
Creias que ainda te posso ajudar

[Solo]

D|--2-3-5-7-5-3-5-7-10-09-7-5-7-09-12-10----------10--|
A|--3-5-7-8-7-5-7-8-12-10-8-7-8-10-14-----10----------|
F#|---------------------------------------------10----|
D|--------------------------------------------10------|
A|----------------------------------------------------|
Acordes para:

    0 comentários

      mostrar mais comentários

      Conseguiu tocar?

      29tocaram1ainda não

      Grave um vídeo tocando Amargurado e mande pra gente!

      00:00 / 00:00
      outros vídeos desta música
      repetirqualidadeautomática
      Outro vídeos desta música
        00:00 / 00:00
        automática
        OK