Cifra Club

Aprenda

Boi Soberano

Tião Carreiro e Pardinho

Cifra: Completa (violão e guitarra)
tom: E
Viola afinada em E (MI)

Ponte entre os versos
E|--------------7--7--7--7--7--7--7------------
B|--------------7--7--7--7--7--7--7------------
G#|-------------7--7--7--8--7--7--7------------
E|--------------7--7--7--9--7--7--7------------
B|--------------7--7--7--7--7--7--7------------

1º Linha de Cada Verso
-----------------------------------------------------------------------
-9-9-9-7-7--------7-7-7------------------------------------------------
-8-8-8-7-7-8-8-7--7-7-7-8-8-7-7-5---5/8-8-8-7-7-5-5-3-3-2-2-2-------(B)
-----------9-9-7--------9-9-7-7-6---6/9-9-9-7-7-6-6-4-4-2-2-2-----2----
--------------------------------------------------------------2-3-4----

2º Linha de Cada Verso
-----------------------------------------------------------------------
-----------------------------------------------------------------------
-2/3-3-3-2-2-0-0-----2-2-2-0-0---------0-0-0---------------------------
-2/4-4-4-2-2-0-0-2---2-2-2-0-0-2-2-0---0-0-0-2-2-0-0-0---2-2-2-0-0-0-0-
-----------------4-------------4-4-2---------4-4-2-2-0---4-4-4-2-2-0-0-

3º Linha de Cada Verso
-----------------------------------------------------------------------
-----------------------------------------------------------------------
-0-0-2/3-3-3-3-0--0-0-0-2-2-2-2----------------------------------------
-0-0-2/4-4-4-4-0--0-0-0-2-2-2-2-2--2-2-2-2-2/4-4-4-0---0-0-0-0-2-2-2-0-
--------------------------------4--4-4-4-4-4/5-5-5-2---2-2-2-0-4-4-4-0-

4º Linha de Cada Verso
----------------------------------------7--7--7--7--7--7--7------------
-------------4-2------------------------7--7--7--7--7--7--7------------
-------------3-2-3-2-2------------------7--7--7--8--7--7--7------------
-------0-2-4-----4-2-2--2-2-0-0---------7--7--7--9--7--7--7------------
-0-2-4------------------4-4-0-0---------7--7--7--7--7--7--7------------

(1) Me alembro e tenho saudade do tempo que vai ficando, do tempo de boiadeiro que eu vivia viajando.
(2) Eu nunca tinha tristeza vivia sempre cantando, mês e mês cortando estrada no meu cavalo ruano
(3) Sempre lidando com gado, desde a idade de 15 anos, não esqueço de um transporte, 600 boi cuiabano.
(4) No Meio tinha um boi preto por nome de soberano.

(1) Na hora da despedida o fazendeiro foi falando cuidado com esse boi que nas guampas é leviano
(2) Esse boi é criminoso já me fez diversos danos tocamos pela estrada naquilo sempre pensando
(3) Na cidade de Barretos, na hora que eu fui chegando a boiada estourou ai, só via gente gritando.
(4) Foi mesmo uma tirania, na frente ia o Soberano.

 O comércio da cidade as portas foram fechando na rua tinha um menino de certo estava brincando
 Quando ele viu que morria de susto foi desmaiando coitadinho debruçou na frente do Soberano
 O Soberano parou ai, em cima ficou bufando rebatendo com o chifre, os bois que vinham passando.
 Naquilo o pai da criança de longe vinha gritando!

 Se esse boi matar meu filho eu mato quem vai tocando e quando viu seu filho vivo e o boi por ele velando
 Caiu de joelho por terra e para Deus foi implorando salvai meu anjo da guarda desse momento tirano
 Quando passou a boiada, o boi foi se retirando veio o pai dessa criança e comprou o Soberano
 Esse boi salvou meu filho ninguém mata o Soberano!
Composição de Carreirinho / Izaltino G. De Paula / Pedro L. de Oliveira
Colaboração e revisão:
  • Luiz Fonseca
9.943 exibições
    • ½ Tom
    • A
    • Bb
    • B
    • C
    • Db
    • D
    • Eb
    • E
    • F
    • F#
    • G
    • Ab
  • Adicionar à lista

    0 comentários

    Ver todos os comentários
    00:00 / 00:00
    Outros vídeos desta música
    Repetir Qualidade Automático
    Outros vídeos desta música
    00:00 / 00:00
    Automático

    Cifra Club Pro

    Aproveite o Cifra Club com benefícios exclusivos e sem anúncios
    Cifra Club Pro
    Aproveite o Cifra Club com benefícios exclusivos e sem anúncios
    OK