Cifra Club

Septima Estrella

Tierra Santa

Cifra: Principal (violão e guitarra)
tom: Dm

x2
E|-----------------------------------------|
B|-----------------------------------------|
G|-----------------------------------------|
D|------7--5--7--8--7--5--7--5---5---------|
A|--5--5-----------------------8---8--7----|
E|---------------------------------------8-|

E|---------------------------------------------|
B|---------------------------------------------|
G|---------------------------------------------|
D|-----------------5---------------------------|
A|--------6--7--8-----8--7--8--7--5--7--5------|
E|--6--6----------------------------------8--6-|

E|----------------------------------------------|
B|----------------------------------------------|
G|----------------------------------------------|
D|-----------------5----------------------------|
A|--------5--7--8-----8--7--5-----------5--7----|
E|--8--8-----------------------8--6--8--------8-|

                                        x2
E|-----------------------------------------|
B|-----------------------------------------|
G|-----------------------------------------|
D|------7--5--7--8--7--5--7--5---5---------|
A|--5--5-----------------------8---8--7----|
E|---------------------------------------8-|

E|---------------------------------------------|
B|---------------------------------------------|
G|---------------------------------------------|
D|-----------------5---------------------------|
A|--------6--7--8-----8--7--8--7--5--7--5------|
E|--6--6----------------------------------8--6-|

E|----------------------------------------------|
B|----------------------------------------------|
G|----------------------------------------------|
D|-----------------5----------------------------|
A|--------5--7--8-----8--7--5-----------5--7----|
E|--8--8-----------------------8--6--8--------8-|

E|----------------------------------------------|
B|----------------------------------------------|
G|----------------------------------------------|
D|----------------------------------------------|
A|--5--5--7--8--7--5-----5--5--7--8--5----------|
E|--------------------8-------------------------|

E|----------------------------------------------|
B|----------------------------------------------|
G|----------------------------------------------|
D|----------------------------------------------|
A|--5--5--7--8--7--5--------------5--7--5-------|
E|--------------------8--6--6--8-----------8----|

E|----------------------------------------------|
B|----------------------------------------------|
G|----------------------------------------------|
D|--2-------------------------------------------|
A|--0-0--0--0--0--0--0--0--0--0--0--0--0--0--0--|
E|----------------------------------------------|

E|----------------------------------------------|
B|----------------------------------------------|
G|----------------------------------------------|
D|--5-------------------------------------------|
A|--3--3--3--3--3--3--3--5----------------------|
E|-----------------------3--3--3--3--3--3--3----|

E|----------------------------------------------|
B|----------------------------------------------|
G|----------------------------------------------|
D|--2-------------------------------------------|
A|--0-0--0--0--0--0--0--0--0--0--0--0--0--0--0--|
E|----------------------------------------------|

E|----------------------------------------------|
B|----------------------------------------------|
G|----------------------------------------------|
D|--5-------------------------------------------|
A|--3--3--3--3--3--3--3--5--0--2--3--2--0-------|
E|-----------------------3-----------------3----|

E|----------------------------------------------|
B|----------------------------------------------|
G|----------------------------------------------|
D|----------------------------------------------|
A|--3-------------------------------------------|
E|--1--1--1--1--1--1--1--1--1--1--1--1--1--1--1-|

E|----------------------------------------------|
B|----------------------------------------------|
G|----------------------------------------------|
D|----------------------------------------------|
A|--2-------------------------------------------|
E|--0--0--0--0--0--0--0--0--0--0--0--0--0--0--0-|

E|----------------------------------------------|
B|----------------------------------------------|
G|----------------------------------------------|
D|----------------------------------------------|
A|--3-------------------------------------------|
E|--1--1--1--1--1--1--1--1--1--1--1--1--1--1--1-|

E|----------------------------------------------|
B|----------------------------------------------|
G|----------------------------------------------|
D|----------------------------------------------|
A|--5--------------------2----------------------|
E|--3--3--3--3--3--3--3--0--0--0--0--0--0--0----|

E|----------------------------------------------|
B|----------------------------------------------|
G|----------------------------------------------|
D|--2-------------------------------------------|
A|--0--0--0--0--0--0--0--0--0--0--0--0--0--0--0-|
E|----------------------------------------------|

E|----------------------------------------------|
B|----------------------------------------------|
G|----------------------------------------------|
D|----------------------------------------------|
A|--5--------------------3--0--2--3--2--0-------|
E|--3--3--3--3--3--3--3--1-----------------3----|

E|----------------------------------------------|
B|----------------------------------------------|
G|----------------------------------------------|
D|--2-------------------------------------------|
A|--0--0--0--0--0--0--0--0--0--0--0--0--0--0--0-|
E|----------------------------------------------|

E|----------------------------------------------|
B|----------------------------------------------|
G|----------------------------------------------|
D|--------------------5--x----------------------|
A|--3-----------------3--x--5--x----------------|
E|--1--1--1--1--1--1--------3--x----------------|

E|----------------------------------------------|
B|----------------------------------------------|
G|----------------------------------------------|
D|--2-------------------------------------------|
A|--0--0--0--0--0--0--0--0--0--0--0--0--0--0--0-|
E|----------------------------------------------|

E|----------------------------------------------|
B|----------------------------------------------|
G|----------------------------------------------|
D|----------------------------------------------|
A|--5--------------------3--0--2--3--2--0-------|
E|--3--3--3--3--3--3--3--1-----------------3----|

E|----------------------------------------------|
B|----------------------------------------------|
G|----------------------------------------------|
D|--5-------------------------------------------|
A|--3--3--3--3--3--3--3--3--3--3--3--3--3--3--3-|
E|----------------------------------------------|

E|----------------------------------------------|
B|----------------------------------------------|
G|----------------------------------------------|
D|--7--------------------9----------------------|
A|--5--5--5--5--5--5--5--7--7--7--7--7--7--7----|
E|----------------------------------------------|

E|----------------------------------------------|
B|----------------------------------------------|
G|----------------------------------------------|
D|----------------------------------------------|
A|--7--7--7--7--7--7--7--7--7--7--7--7--7--7--7-|
E|----------------------------------------------|

E|----------------------------------------------|
B|----------------------------------------------|
G|----------------------------------------------|
D|--2-------------------------------------------|
A|--0--0--0--0--0--0--0--0--0--0--0--0--0--0--0-|
E|----------------------------------------------|

E|----------------------------------------------|
B|----------------------------------------------|
G|----------------------------------------------|
D|--0--0--0--0--0--0--0--0--0--0--0--0--0--0--2-|
A|--------------------------------------------0-|
E|----------------------------------------------|

E|----------------------------------------------|
B|----------------------------------------------|
G|----------------------------------------------|
D|--2-------------------------------------------|
A|--0-0--0--0--0--0--0--0--0--0--0--0--0--0--0--|
E|----------------------------------------------|

E|----------------------------------------------|
B|----------------------------------------------|
G|----------------------------------------------|
D|--5-------------------------------------------|
A|--3--3--3--3--3--3--3--5----------------------|
E|-----------------------3--3--3--3--3--3--3----|

E|----------------------------------------------|
B|----------------------------------------------|
G|----------------------------------------------|
D|--2-------------------------------------------|
A|--0-0--0--0--0--0--0--0--0--0--0--0--0--0--0--|
E|----------------------------------------------|

E|----------------------------------------------|
B|----------------------------------------------|
G|----------------------------------------------|
D|--------------------------------------------2-|
A|--0--0--0--0--0--0--0--0--0--0--0--0--0--0--0-|
E|----------------------------------------------|

E|----------------------------------------------|
B|----------------------------------------------|
G|----------------------------------------------|
D|--2-------------------------------------------|
A|--0-0--0--0--0--0--0--0--0--0--0--0--0--0--0--|
E|----------------------------------------------|

E|----------------------------------------------|
B|----------------------------------------------|
G|----------------------------------------------|
D|--5-------------------------------------------|
A|--3--3--3--3--3--3--3--5----------------------|
E|-----------------------3--3--3--3--3--3--3----|

E|----------------------------------------------|
B|----------------------------------------------|
G|----------------------------------------------|
D|--2-------------------------------------------|
A|--0-0--0--0--0--0--0--0--0--0--0--0--0--0--0--|
E|----------------------------------------------|

E|----------------------------------------------|
B|----------------------------------------------|
G|----------------------------------------------|
D|--5-------------------------------------------|
A|--3--3--3--3--3--3--3--5----------------------|
E|-----------------------3--3--3--3--3--3--3----|

E|----------------------------------------------|
B|----------------------------------------------|
G|----------------------------------------------|
D|--2-------------------------------------------|
A|--0-0--0--0--0--0--0--0--0--0--0--0--0--0--0--|
E|----------------------------------------------|

E|----------------------------------------------|
B|----------------------------------------------|
G|----------------------------------------------|
D|--5-------------------------------------------|
A|--3--3--3--3--3--3--3--5----------------------|
E|-----------------------3--3--3--3--3--3--3----|

E|----------------------------------------------|
B|----------------------------------------------|
G|----------------------------------------------|
D|----------------------------------------------|
A|--3-------------------------------------------|
E|--1--1--1--1--1--1--1--1--1--1--1--1--1--1--1-|

E|----------------------------------------------|
B|----------------------------------------------|
G|----------------------------------------------|
D|----------------------------------------------|
A|--2-------------------------------------------|
E|--0-0--0--0--0--0--0--0--0--0--0--0--0--0--0--|

E|----------------------------------------------|
B|----------------------------------------------|
G|----------------------------------------------|
D|----------------------------------------------|
A|--3-------------------------------------------|
E|--1--1--1--1--1--1--1--1--1--1--1--1--1--1--1-|

E|----------------------------------------------|
B|----------------------------------------------|
G|----------------------------------------------|
D|----------------------------------------------|
A|--5---------------2---------------------------|
E|--3--3-3-3-3-3-3--0-0-0-0-0-0-0---------------|

E|------|-----|------|------|-----------|------|-----|------|
B|------|-----|------|------|-----------|------|-----|------|
G|------|-----|------|------|-----------|------|-----|------|
D|------|-----|------|------|-----------|------|-----|------|
A|--12--|--8--|--10--|--10--|--7--8-10--|--12--|--8--|--10--|
E|--10--|--6--|--8---|--8---|--5--6--8--|--10--|--6--|--8---|

E|-----------|------|-----|------|-----------|------|-----|------|
B|-----------|------|-----|------|-----------|------|-----|------|
G|-----------|------|-----|------|-----------|------|-----|------|
D|-----------|------|-----|------|-----------|------|-----|------|
A|--7--8-10--|--12--|--8--|--10--|--7--8-10--|--12--|--8--|--10--|
E|--5--6--8--|--10--|--6--|--8---|--5--6--8--|--10--|--6--|--8---|

E|-----------|------|-----|------|-----------|
B|-----------|------|-----|------|-----------|
G|-----------|------|-----|------|-----------|
D|-----------|------|-----|------|-----------|
A|--7--8-10--|--12--|--8--|--10--|--7--8-10--|
E|--5--6--8--|--10--|--6--|--8---|--5--6--8--|

E|----------------------------------------------|
B|----------------------------------------------|
G|----------------------------------------------|
D|--7-------------------------------------------|
A|--5-5-5-5-5-5-5-5-5-5-5-5-5-5-5-5-5-5-5-5-5---|
E|----------------------------------------------|

E|----------------------------------------------|
B|----------------------------------------------|
G|----------------------------------------------|
D|----------------------------------------------|
A|--8-------------------------------------------|
E|--6-6-6-6-6-6-6-6-6-6-6-6-6-6-6-6-6-6-6-6-6-6-|

E|----------------------------------------------|
B|----------------------------------------------|
G|----------------------------------------------|
D|----------------------------------------------|
A|--10------------------------------------------|
E|--8-8-8-8-8-8-8-8-8-8-8-8-8-8-8-8-8-8-8-8-8-8-|

E|----------------------------------------------|
B|----------------------------------------------|
G|----------------------------------------------|
D|----------------------------------------------|
A|--7--------8-10--8----------------------------|
E|--5--5--5--6--8--6----------------------------|

E|----------------------------------------------|
B|----------------------------------------------|
G|----------------------------------------------|
D|--7-------------------------------------------|
A|--5-5-5-5-5-5-5-5-5-5-5-5-5-5-5-5-5-5-5-5-5---|
E|----------------------------------------------|

E|----------------------------------------------|
B|----------------------------------------------|
G|----------------------------------------------|
D|----------------------------------------------|
A|--8-------------------------------------------|
E|--6-6-6-6-6-6-6-6-6-6-6-6-6-6-6-6-6-6-6-6-6-6-|

E|----------------------------------------------|
B|----------------------------------------------|
G|----------------------------------------------|
D|----------------------------------------------|
A|--10------------------------------------------|
E|--8-8-8-8-8-8-8-8-8-8-8-8-8-8-8-8-8-8-8-8-8-8-|

E|----------------------------------------------|
B|----------------------------------------------|
G|----------------------------------------------|
D|----------------------------------------------|
A|--7----8---10----8----------------------------|
E|--5----6----8----6----------------------------|

E|----------------------------------------------|
B|----------------------------------------------|
G|----------------------------------------------|
D|--2-------------------------------------------|
A|--0-0--0--0--0--0--0--0--0--0--0--0--0--0--0--|
E|----------------------------------------------|

E|----------------------------------------------|
B|----------------------------------------------|
G|----------------------------------------------|
D|--5-------------------------------------------|
A|--3--3--3--3--3--3--3--5----------------------|
E|-----------------------3--3--3--3--3--3--3----|

E|----------------------------------------------|
B|----------------------------------------------|
G|----------------------------------------------|
D|--2-------------------------------------------|
A|--0-0--0--0--0--0--0--0--0--0--0--0--0--0--0--|
E|----------------------------------------------|

E|----------------------------------------------|
B|----------------------------------------------|
G|----------------------------------------------|
D|--5-------------------------------------------|
A|--3--3--3--3--3--3--3--5--0--2--3--2--0-------|
E|-----------------------3-----------------3----|

E|----------------------------------------------|
B|----------------------------------------------|
G|----------------------------------------------|
D|----------------------------------------------|
A|--3-------------------------------------------|
E|--1--1--1--1--1--1--1--1--1--1--1--1--1--1--1-|

E|----------------------------------------------|
B|----------------------------------------------|
G|----------------------------------------------|
D|----------------------------------------------|
A|--2-------------------------------------------|
E|--0-0--0--0--0--0--0--0--0--0--0--0--0--0--0--|

E|----------------------------------------------|
B|----------------------------------------------|
G|----------------------------------------------|
D|----------------------------------------------|
A|--3-------------------------------------------|
E|--1--1--1--1--1--1--1--1--1--1--1--1--1--1--1-|

E|----------------------------------------------|
B|----------------------------------------------|
G|----------------------------------------------|
D|----------------------------------------------|
A|--5---------------2---------------------------|
E|--3--3-3-3-3-3-3--0-0-0-0-0-0-0---------------|

E|----------------------------------------------|
B|----------------------------------------------|
G|----------------------------------------------|
D|----------------------------------------------|
A|--5--------------------3--0--2--3--2--0-------|
E|--3--3--3--3--3--3--3--1-----------------3----|

E|----------------------------------------------|
B|----------------------------------------------|
G|----------------------------------------------|
D|--2-------------------------------------------|
A|--0-0--0--0--0--0--0--0--0--0--0--0--0--0--0--|
E|----------------------------------------------|

E|----------------------------------------------|
B|----------------------------------------------|
G|----------------------------------------------|
D|-----------------------5--x-------------------|
A|--1--------------------3--x--5--X-------------|
E|--3--1--1--1--1--1--1--------3--X-------------|

E|----------------------------------------------|
B|----------------------------------------------|
G|----------------------------------------------|
D|--2-------------------------------------------|
A|--0-0--0--0--0--0--0--0--0--0--0--0--0--0--0--|
E|----------------------------------------------|

E|----------------------------------------------|
B|----------------------------------------------|
G|----------------------------------------------|
D|----------------------------------------------|
A|--5--------------------3--0--2--3--2--0-------|
E|--3--3--3--3--3--3--3--1-----------------3----|

E|----------------------------------------------|
B|----------------------------------------------|
G|----------------------------------------------|
D|--5-------------------------------------------|
A|--3--3--3--3--3--3--3--3--3--3--3--3--3--3--3-|
E|----------------------------------------------|

E|----------------------------------------------|
B|----------------------------------------------|
G|----------------------------------------------|
D|--7--------------------9----------------------|
A|--5--5--5--5--5--5--5--7--7--7--7--7--7--7----|
E|----------------------------------------------|

E|----------------------------------------------|
B|----------------------------------------------|
G|----------------------------------------------|
D|----------------------------------------------|
A|--7--7--7--7--7--7--7--7--7--7--7--7--7--7--7-|
E|----------------------------------------------|

E|----------------------------------------------|
B|----------------------------------------------|
G|----------------------------------------------|
D|--2-------------------------------------------|
A|--0-0--0--0--0--0--0--0--0--0--0--0--0--0--0--|
E|----------------------------------------------|

E|----------------------------------------------|
B|----------------------------------------------|
G|----------------------------------------------|
D|----------------------------------------------|
A|--5--------------------3--0--2--3--2--0-------|
E|--3--3--3--3--3--3--3--1-----------------3----|

E|----------------------------------------------|
B|----------------------------------------------|
G|----------------------------------------------|
D|--2-------------------------------------------|
A|--0-0--0--0--0--0--0--0--0--0--0--0--0--0--0--|
E|----------------------------------------------|

E|----------------------------------------------|
B|----------------------------------------------|
G|----------------------------------------------|
D|-----------------------5--x-------------------|
A|--1--------------------3--x--5--X-------------|
E|--3--1--1--1--1--1--1--------3--X-------------|

E|----------------------------------------------|
B|----------------------------------------------|
G|----------------------------------------------|
D|--2-------------------------------------------|
A|--0-0--0--0--0--0--0--0--0--0--0--0--0--0--0--|
E|----------------------------------------------|

E|----------------------------------------------|
B|----------------------------------------------|
G|----------------------------------------------|
D|----------------------------------------------|
A|--5--------------------3--0--2--3--2--0-------|
E|--3--3--3--3--3--3--3--1-----------------3----|

E|----------------------------------------------|
B|----------------------------------------------|
G|----------------------------------------------|
D|--5-------------------------------------------|
A|--3--3--3--3--3--3--3--3--3--3--3--3--3--3--3-|
E|----------------------------------------------|

E|----------------------------------------------|
B|----------------------------------------------|
G|----------------------------------------------|
D|--7--------------------9----------------------|
A|--5--5--5--5--5--5--5--7--7--7--7--7--7--7----|
E|----------------------------------------------|

E|----------------------------------------------|
B|----------------------------------------------|
G|----------------------------------------------|
D|----------------------------------------------|
A|--7--7--7--7--7--7--7--7--7--7--7--7--7--7--7-|
E|----------------------------------------------|

E|----------------------------------------------|
B|----------------------------------------------|
G|----------------------------------------------|
D|----------------------------------------------|
A|--7--7--7--7--7--7--7--7--7--7--7--7--7--7--7-|
E|----------------------------------------------|

E|----------------------------------------------|
B|----------------------------------------------|
G|----------------------------------------------|
D|--2-------------------------------------------|
A|--0-0--0--0--0--0--0--0--0--0--0--0--0--0--0--|
E|----------------------------------------------|

E|----------------------------------------------|
B|----------------------------------------------|
G|----------------------------------------------|
D|-------------------------------------------2--|
A|--0-0--0--0--0--0--0--0--0--0--0--0--0--0--0--|
E|----------------------------------------------|

E|----------------------------------------------|
B|----------------------------------------------|
G|----------------------------------------------|
D|--2-------------------------------------------|
A|--0-0--0--0--0--0--0--0--0--0--0--0--0--0--0--|
E|----------------------------------------------|

E|----------------------------------------------|
B|----------------------------------------------|
G|----------------------------------------------|
D|--5-------------------------------------------|
A|--3--3--3--3--3--3--3--5----------------------|
E|-----------------------3--3--3--3--3--3--3----|

E|----------------------------------------------|
B|----------------------------------------------|
G|----------------------------------------------|
D|--2-------------------------------------------|
A|--0-0--0--0--0--0--0--0--0--0--0--0--0--0--0--|
E|----------------------------------------------|

E|----------------------------------------------|
B|----------------------------------------------|
G|----------------------------------------------|
D|-------------------------------------------2--|
A|--0-0--0--0--0--0--0--0--0--0--0--0--0--0--0--|
E|----------------------------------------------|

E|----------------------------------------------|
B|----------------------------------------------|
G|----------------------------------------------|
D|--2-------------------------------------------|
A|--0-0--0--0--0--0--0--0--0--0--0--0--0--0--0--|
E|----------------------------------------------|

E|----------------------------------------------|
B|----------------------------------------------|
G|----------------------------------------------|
D|--5-------------------------------------------|
A|--3--3--3--3--3--3--3--5----------------------|
E|-----------------------3--3--3--3--3--3--3----|

E|----------------------------------------------|
B|----------------------------------------------|
G|----------------------------------------------|
D|--------7--5--7--8--7--5--7--5-----5----------|
A|--5--5--------------------------8-----8--7----|
E|--------------------------------------------8-|

E|----------------------------------------------|
B|----------------------------------------------|
G|----------------------------------------------|
D|-----------------5----------------------------|
A|--------8--7--8-----8--7--8--7--5--7--5-------|
E|--6--6-----------------------------------8--6-|

E|----------------------------------------------|
B|----------------------------------------------|
G|----------------------------------------------|
D|----------------------------------------------|
A|--5--5--7--8--7--5-----5--5--7--8--5----------|
E|--------------------8-------------------------|

E|----------------------------------------------|
B|----------------------------------------------|
G|----------------------------------------------|
D|----------------------------------------------|
A|--5--5--7--8--7--5--------------5--7--5-------|
E|--------------------8--6--6--8-----------8----|

E|----------------------------------------------|
B|----------------------------------------------|
G|----------------------------------------------|
D|----------------------------------------------|
A|--5--5--7--8--7--5-----5--5--7--8--5----------|
E|--------------------8-------------------------|

E|----------------------------------------------|-----|
B|----------------------------------------------|-----|
G|----------------------------------------------|-----|
D|----------------------------------------------|--7--|
A|--5--5--7--8--7--5--------------5--7--5-------|--5--|
E|--------------------8--6--6--8-----------8----|-----|
Composição de Tierra Santa
    • ½ Tom
    • Am
    • Bbm
    • Bm
    • Cm
    • C#m
    • Dm
    • Ebm
    • Em
    • Fm
    • F#m
    • Gm
    • G#m
  • Adicionar à lista

    0 comentários

    Ver todos os comentários

    Conseguiu tocar?

    0 Tocaram 0 Ainda não

    Grave um vídeo tocando Septima Estrella e nos envie!

    00:00 / 00:00
    Outros vídeos desta música
    Repetir Qualidade Automático
    Outros vídeos desta música
    00:00 / 00:00
    Automático

    Cifra Club Pro

    Aproveite o Cifra Club com benefícios exclusivos e sem anúncios
    Cifra Club Pro
    Aproveite o Cifra Club com benefícios exclusivos e sem anúncios
    OK