Notificações Amigos pendentes

      Tihuana

      Ela Se Foi

      30.750 exibições
      Tom: D
      ( E B9 A9 E )
      Ela se foi, e não levou nada.
      Nem se quer deixou um adeus,
      E se volta não sei dizer
      
      ( E B9 A9 E )
      Ela só queria alguém que entendesse seus sonhos
      Que dissesse palavras fáceis
      Que nunca lhe trouxesse dor
      
         G              C9
      E|-3---3-|    E |-3---3-|
      A|-2---2-|    A |-----3-|
      D|-------|    D |--4--4-|
      G|-------|    G |-----4-|
      B|-----3-|    B |-----3-|
      E|------3|    e |-----3-|
                                              E
      Vai saber pelas ruas que a vida não é tão simples
      Quando anoitecer a solidão ninguém domina...
      
                      A9
      Um novo amanhecer
                 D
      Um dia pra começar
               C
      E tudo que viveu
               G          E
      Ninguém mais vai saber
      
      E|-12-11-7-12-11-7-12-11-7~----|
      B|-----------------------------| (junto a base)
      G|-----------------------------|
      D|-----------------------------|
      A|-----------------------------|
      E|-----------------------------|
      
      
                      A9
      Se acaso se perder
                      D
      Ninguém vai se importar
                    C
      E quando ela chorar
                G         E
      Ninguém mais vai saber
      
      E
      Ela nunca percebeu
                     B9
      Que o tempo não pára
                    A9
      Que a vida é muito rara
                              E
      E não vale a pena se entregar por aí
      Solo:
      
      E|-12-11-------9-11-12-----7-------7-------7-------7-------7---------0-------0--12-11------|
      B|-------12-12---------9-9---9-7-7---7-7-7---7-7-7---7-7-7---7-10-12---10-12----------12---|
      G|-----------------------------------------------------------------------------------------|
      D|-----------------------------------------------------------------------------------------|
      A|-----------------------------------------------------------------------------------------|
      E|-----------------------------------------------------------------------------------------|
      
      
      ( E B9 A9 E )
      Ela só queria alguém que entendesse seus sonhos
      Que dissesse palavras fáceis
      Que nunca lhe trouxesse dor
         G              C9
      E|-3---3-|    G |-3---3-|
      A|-2---2-|    A |-----3-|
      D|-------|    D |--4--4-|
      G|-------|    G |-----4-|
      B|-----3-|    B |-----3-|
      E|------3|    e |-----3-|
      
                                          E
      Dessa vez, Não há nada que eu possa fazer
      Certas escolhas não tem volta
      
                      A9
      Um novo amanhecer
                 D
      Um dia pra começar
               C
      E tudo que viveu
              G           E
      Ninguém mais vai saber
                      A9
      Se acaso se perder
                      D
      Ninguém vai se importar
                    C
      E quando ela chorar
               G         E
      Ninguém mais vai saber
      
      E|-12-11----12-11----12-11-----------|
      B|-------12-------12-------10h12-----|
      G|-----------------------------------|
      D|-----------------------------------|
      A|-----------------------------------|
      E|-----------------------------------|
      
      
             C              D           E
      Dizem que a dor faz a gente Pensar...
      C              D                 E
      Dizem que o amor faz a gente mudar...
             C              D           E
      Dizem que a dor faz a gente Pensar...
      
      E|-10h12-10h12-10h12-10h12-10h12-10h12-10h12-10h12-10h12-10h12-15(b)---|
      B|---------------------------------------------------------------------|
      G|---------------------------------------------------------------------|
      D|---------------------------------------------------------------------|
      A|---------------------------------------------------------------------|
      E|---------------------------------------------------------------------|
      
      
      C              D                 E
      Dizem que o amor faz a gente mudar...
      (E)
      Ohhh!!
        Composição: Ivy / TihuanaColaboração e revisão:
        • Juninho Lodron
        • srnanzinho
        • Leo dudu
        • balinha

        Comentários 0

        140 .
        140 cancelar

        conseguiu tocar?

        covers

        Grave um vídeo tocando Ela Se Foi e mande pra gente!

        Ex.: http://www.youtube.com/watch?v=0IvSvIwGdwk
        ver covers de outras músicas »
        0:00 / 0:00

        Capítulos

          1 versão de violão dificuldade exibições contribuição e correção
          1 versão de guitarra dificuldade exibições contribuição e correção
          1 versão de cavaco dificuldade exibições contribuição e correção
          1 versão de teclado dificuldade exibições contribuição e correção
          play/pausefechar subir/descer velocidade
          6ª corda E5ª corda A4ª corda D3ª corda G2ª corda B1ª corda E
            acordes
            publicidade
            fechar
            ok