Cifra Club

As Histórias do Cinema

Tim Bernardes

Cifra: Principal (violão e guitarra)
Selo Cifra Club: esta cifra foi revisada para atender aos critérios oficiais da nossa Equipe de Qualidade.
tom: D
A
E|------------------------------------|
B|--5--4--2--5--4---2-----------------|
G|--2-----2-----2---------------------|
D|--2-----2-----2---------------------|
A|--0-----0-----0---------------------|
E|------------------------------------|

B
E|------------------------------------|
B|--4--2-----4--2---2-----------------|
G|--4-----4-----4---------------------|
D|--4-----4-----4---------------------|
A|--2-----2-----2---------------------|
E|------------------------------------|

A                   B
E chegou no fim do filme
A                 B
De volta aonde começou
A               B
Um minuto de silêncio
A                       B
De quem riu, de quem chorou

A                   B
E quem esqueceu da vida
A                  B
Volta agora a se lembrar
A                    B
Vendo os créditos descendo
A                   B
A hora em cada celular

A                    B
Vão subindo pra paulista
A                 B
Caminhando sem falar
A                    B
Os prédios parecem gigantes
A                 B
As luzes parecem cegar

A                   B
E a vida parece mentira
A                    B
Por que não quer acreditar
A                    B
Que as histórias do cinema
A                    B
É que não podem ser reais

( A  B )
00:00 / 00:00
Outros vídeos desta música
Repetir
Outros vídeos desta música
9.286 exibições
    • ½ Tom
    • A
    • Bb
    • B
    • C
    • Db
    • D
    • Eb
    • E
    • F
    • F#
    • G
    • Ab
  • Adicionar à lista

Afinação da cifra

Afinador online

    0 comentários

    Ver todos os comentários

    Entre para o Cifra Club PRO

    Tenha acesso a benefícios exclusivos no App e no Site

    • Chega de anúncios

    • Mais recursos no app do Afinador

    • Atendimento Prioritário

    • Aumente seu limite de lista

    • Ajude a produzir mais conteúdo

    00:00 / 00:00

    Cifra Club Pro

    Aproveite o Cifra Club com benefícios exclusivos e sem anúncios
    Cifra Club Pro
    Aproveite o Cifra Club com benefícios exclusivos e sem anúncios
    OK