Cifra Club

Esse Ar

Tim Bernardes

Cifra: Principal (violão e guitarra)
Selo Cifra Club: esta cifra foi revisada para atender aos critérios oficiais da nossa Equipe de Qualidade.
tom: Em
[Intro] Em

[Primeira Parte]

Em             D#°
  Esse ar enluarado
             D             
Esse ar molhado, ar noturno
C#m7(5-)                
 Bruto e refinado
C7M/G        C6(9/11+)    
 Preto e prateado, ar

[Refrão]

G7M/B                      D7(4/9)
     Puro, denso e transparente
G7M/B                          D7(4/9)
     Que mexe, que emociona a gente

[Segunda Parte]

Em             D#°
  Esse ar imaginário
           D
Esse ar calado, ar profundo
C#m7(5-)
    Eco do futuro
C7M/G        C6(9/11+)
Cheiro de passado, ar

[Refrão]

G7M/B             D7(4/9)
   Vento já paralisado
G7M/B             D7(4/9)
  Mistério fotografado

( Dm7(13)  C7M  F#m7(5-)  B/F#  C7M/G )

[Terceira Parte]

Em             D#°
   Esse ar exagerado
             D
Esse ar perfeito, o nó no peito
Cm7(5-)
   É um nó bonito
C7M/G        C6(9/11+)
Fé e dó do mundo, ah

[Refrão]

G7M/B                       D7(4/9)
      Restos de um amor profundo
G7M/B                 D7(4/9)
      Lua, sede verdadeira
G7M/B                    D7(4/9)
      Falta algo e assim mesmo
G7M/B                       D7(4/9)  D7
      É sempre um buraco inteiro

[Final] Em  Bm11  Em  Bm11  G6(5-)

[Tab - Ponte]

Parte 1 de 2

   Dm7(13)                      C7M
E|--7--7--7---5---8--8--8---5---7--7--7---5-----------|
B|--6--6--6---6---6--6--6---6---5--5--5---5-----------|
G|------------------------------5---------------------|
D|--7-------------7-----------------------------------|
A|----------------------------------------------------|
E|----------------------------------------------------|

Parte 2 de 2
                  F#m7(5-)           B/F#   C7M/G
E|--8--7--5--------------------7-----7----------------|
B|--5--5--5---8---7-----7------5-----4------0---------|
G|--5-----5-------5--5--5--5---5--5--4--4----0--------|
D|-----------------------------4-----4--------2-------|
A|---------------------------------------------3------|
E|----------------------------------------------3-----|

[Forma dos acordes]

[Partes]

   Em      D#°      D     Cm(5-)   C7M   C6(9/11+)
E|--0-------2-------2-------x-------0-------2---------|
B|--0-------1-------3-------5-------0-------3---------|
G|--0-------2-------2-------4-------0-------2---------|
D|--2-------1-------0-------5-------2-------2---------|
A|--2-------x-------x-------4-------3-------3---------|
E|--0-------x-------x-------x-------3-------x---------|

[Refrão]

       G7M/B        D7(4/9)         D7
E|-------x-------------5-------------x----------------|
B|-------7-------------5-------------7----------------|
G|-------7-------------5-------------5----------------|
D|-------5-------------5-------------7----------------|
A|-------x-------------5-------------5----------------|
E|-------5-------------x-------------x----------------|

[Final]

        Em            Bm11          G6(5-)
E|-------0-------------0-------------x----------------|
B|-------0-------------0-------------2----------------|
G|-------0-------------7-------------0----------------|
D|-------5-------------0-------------2----------------|
A|-------7-------------5-------------4----------------|
E|-------0-------------7-------------3----------------|
00:00 / 00:00
Outros vídeos desta música
Repetir
Outros vídeos desta música
2.160 exibições
    • ½ Tom
    • Am
    • Bbm
    • Bm
    • Cm
    • C#m
    • Dm
    • Ebm
    • Em
    • Fm
    • F#m
    • Gm
    • G#m
  • Adicionar à lista

Afinação da cifra

Afinador online

    0 comentários

    Ver todos os comentários

    Entre para o Cifra Club PRO

    Tenha acesso a benefícios exclusivos no App e no Site

    • Chega de anúncios

    • Mais recursos no app do Afinador

    • Atendimento Prioritário

    • Aumente seu limite de lista

    • Ajude a produzir mais conteúdo

    00:00 / 00:00

    Cifra Club Pro

    Aproveite o Cifra Club com benefícios exclusivos e sem anúncios
    Cifra Club Pro
    Aproveite o Cifra Club com benefícios exclusivos e sem anúncios
    OK